Cifra Club

Meu Alvo

Kleber Lucas

Cifrado: Principal (guitarra y guitarra eléctrica)
Quer fazer aulas de música com a gente? Responda essas perguntas
e nos ajude nesse projeto! →
tono: Bb
[Intro] Bb  Eb  Gm  Eb

E|----------------------------------------------------------------|
B|---4-4-3-------4-4-3-------4-4-3---3----------------------------|
G|----------5-3---------5-3---------5-3---------------------------|
D|----------------------------------------------------------------|
A|----------------------------------------------------------------|
E|----------------------------------------------------------------|

E|----------------------------------------------------------------|
B|-16-16-16-16-15--------16-16-16-16-15--------16161616-15---15---|
G|----------------17-15-----------------17-15--------------17--15-|
D|----------------------------------------------------------------|
A|----------------------------------------------------------------|
E|----------------------------------------------------------------|

[Primeira Parte]

         Bb                 Gm
Estou subindo pra um lugar mais alto
                  Bb
Eu ja queimei as pontes com o passado
          Gm
E os meus olhos
     Eb                   Ebm7   
Vejo um futuro tudo novo se fez
              Bb
Tudo novo se faz
         F     F4  F          
E dessa estrada.......eu não 
        Gm
Me desvio nunca mais
         F/A     
Estou firme eu não 
           Eb
Me desvio nunca mais

[Refrão]

 Bb 
Vou avançar eu vou crescer
 F/A
Ninguem vai me deter
 Gm
Meu alvo é cristo
 Eb
Meu alvo é cristo
 Bb
Vou avançar eu vou crescer
 F/A
Ninguem vai me deter
 Gm
Meu alvo é cristo
 Eb
Meu alvo é cristo

[Segunda Parte]

       Bb                       Gm
Estou subindo pra um lugar mais alto
             Bb
Eu já desisti de andar sozinho
        Gm
Cristo vive em mim
          Eb             Ebm7                 Bb
E os meus pés estão no caminho, estão no caminho
        F      F4  F             Gm
E dessa estrada.......eu não me desvio nunca mais
       F/A               Eb
Estou firme eu não me desvio nunca mais

[Refrão]

 Bb
Vou avançar eu vou crescer
 F/A
Ninguem vai me deter
 Gm
Meu alvo é cristo
 Eb
Meu alvo é cristo
 Bb
Vou avançar eu vou crescer
 F/A
Ninguem vai me deter
 Gm
Meu alvo é cristo
 Eb
Meu alvo é cristo

 Bb
Vou avançar eu vou crescer
 F/A
Ninguem vai me deter
 Gm
Meu alvo é cristo
 Eb
Meu alvo é cristo
 Bb
Vou avançar eu vou crescer
 F/A
Ninguem vai me deter
 Gm
Meu alvo é cristo
 Eb
Meu alvo é cristo
Composición de Kleber Lucas
5.492 vistas
    • ½ Tono
    • A
    • Bb
    • B
    • C
    • Db
    • D
    • Eb
    • E
    • F
    • F#
    • G
    • Ab
  • Agregar a la lista

    0 comentarios

    Ver todos los comentarios
    00:00 / 00:00
    Outros vídeos desta música
    Repetir Calidad Automático
    Outros vídeos desta música
    00:00 / 00:00
    Automático
    OK