Cifra Club

Pai Nosso

Kleber Lucas

Tablatura: Principal (guitarra)
Tom: C
Intro (Fundo musical com teclado): C  Am  G F  C  Am  G  F

Solo: Violão, Teclado e Guitarra

E|--------------------------------------------------------------|
A|--------------------------------------------------------------|
D|--------------------------------------------------------------|  2x
G|--------------------------------------------------------------|
B|-13----13---13----13----13----13----13----13---13---12--------|
E|----12---12----12----12----12----12----12----12---13---13-----|

E|--------------------------------------------------------------|
A|--------------------------------------------------------------|
D|--------------------------------------------------------------|   
G|--------------------------------------------------------------|
B|-12(x6)---10-10-10--12-12-12-13-13-13-15-15-15----------------|
E|-------13-----------------------------------------------------|

C                       Am
Pai nosso que estás no céu
                        F
santificado seja o teu nome

venha a nós teu reino
           C           G             F
assim na terra como no céu, como no céu

C                   Am
Pai nosso, dá-nos o pão
               F           C
e ensina a perdoar o meu irmão
      G           F
como eu fui perdoado

C                 Am
A honra, a glória, a força, domínio
G                        F
tudo para ti, pra sempre amém

C                 Am
A honra, a glória, a força, domínio
G                        F
tudo para ti, pra sempre amém

( C  Am  F )

livrai-nos do mal

C           Am        G        F
ôôôo ôôôo ôôôo ôôôo ôôôo ôôôo ôôôo ôôôo
reproducciones 4
Acordes para:
    Colaboración y revision:
    • hernanny moura

    0 comentarios

    mostrar más comentarios

    ¿Conseguiste tocar?

    0 tocaron 0 aún no

    ¡Graba un vídeo tocando Pai Nosso y envianoslo!

    00:00 / 00:00
    outros vídeos desta música
    repetir qualidade Automático
    Outros vídeos desta música
    00:00 / 00:00
    Automático
    OK