Cifra Club

Regozija

Kleber Lucas

Tablatura: Principal (guitarra)
Tom: G
(intro)
                   G                       Em                      G                    Em
E|-------------------------------------------------------------------------------------------|
B|-------------------------------------------------------------------------------------------|
G|-10/12--12--14--14/16--16--16--14-12-14-12-------10/12--12--14--14/16--16--16--14-12-14~---|
D|---------------------------------------------14~-------------------------------------------|

                   G                       Em                      G                    Em
E|------------------------------------------------------------------------------------------12~|
B|---------------------------------------------------------------------------------------------|
G|-10/12--12--14--14/16--16--16--14-12-14-12-------10/12--12--14--14/16--16--16--14-12-14~-----|
D|---------------------------------------------14~---------------------------------------------|

Em                                G G9 G G9
Regozija sempre minha alma em Deus
        Em                                        G G9 G G9
Em seu caminho seguir seus passos, meu maior prazer
         Em                                 G G9 G G9
És meu refujo, justiça e graça, minha salvação
          Am             C               D      C9 D
Eu quero ouvir a sua voz cantando essa canção
                                                        
             G                             Em            
Por isso eu louvo, aquele que assentado está no trono   
                        C                                
Está em seu santo lugar eu canto, sabendo que estás aqui (2x)
         D                C9        D                   
Te adoro pois minha sede é saciada em ti.               

  G   D
Uul!

Intro

Em                                G G9 G G9
Regozija sempre minha alma em Deus
        Em                                        G G9 G G9
Em seu caminho seguir seus passos, meu maior prazer
         Em                                 G G9 G G9
És meu refujo, justiça e graça, minha salvação
          Am             C               D      C9 D
Eu quero ouvir a sua voz cantando essa canção

             G                             Em
Por isso eu louvo, aquele que assentado está no trono
                        C
Está em seu santo lugar eu canto, sabendo que estás aqui
        D                 C9        D
Te adoro pois minha sede é saciada em ti. (2x)

(solo)

    Em                              D/F#                                      G
E|---------------------------------------------------------------------------------------
B|---------------------------------------------------------------------------------------
G|-9-9-9-7-9-9-9-7-9-9-9-7-9-9-9-7-11-11-11-7-7-7-7-7-11-11-11-7-7-7-7-7--11/12-12-12-12-
D|---------------------------------------------------------------------------------------

    G                                               D
E|-------------------------------------------------------------------------------------------
B|-------------------------------------------------------------------------------------------
G|----------------12-12-12-12----------------16-16-14-14-14-14-14-14-14-12-14-14-14-12-16-16-
D|-12-12-12-12-12-------------12-12-12-12-12-------------------------------------------------

          Am                      G/B                           C9
E|--------------------------------------------------------------------------------------------|
B|--------------------------------------------------------------------------------------------|
G|-14-12-------------------------11-11-11----------------------11/12-11----11/12-11----11h12~-|
D|-------14-14-14-14-14-14-12-14----------12-12-12-12-12-12-12----------12----------12--------|

             G                             Em
Por isso eu louvo, aquele que assentado está no trono
                         C
Está em seu santo lugar eu canto, sabendo que estás aqui
       D
Te adoro pois minha sede...

(sobe 1 tom)

             A                             F#m
Por isso eu louvo, aquele que assentado está no trono
                         D
Está em seu santo lugar eu canto, sabendo que estás aqui
       E                  D        E
Te adoro pois minha sede é saciada em ti. (2x)

     A   A9   A    A  A9   A
E|----------------------------|
B|----------------------------|
G|--2~--4-4--2-----2-4-4--2~--|
D|--------------4-------------|

       D                     E
    Te adoro pois minha sede  é saciada em ti.
A      E
Ôôô   uÔ!
                   A                       F#m                      A                   F#m
E|------------------------------------------------------------------------------------------|
B|------------------------------------------------------------------------------------------|
G|-12/14--14--16--16/18--18--18--16-14-16-14-------12/14--14--16--16/18--18--18--16-14-16~--|
D|--------------------------------------------16~-------------------------------------------|

                   A                       F#m                      A                   E
E|------------------------------------------------------------------------------------------|
B|------------------------------------------------------------------------------------------|
G|-12/14--14--16--16/18--18--18--16-14-16-14-------12/14--14--16--16/18--18--18--16-14-16~--|
D|--------------------------------------------16~-------------------------------------------|
reproducciones 30
Acordes para:
    Composição: Kleber Lucas Colaboración y revision:
    • Iago Melo
    • Genésio Neto

    0 comentarios

    mostrar más comentarios

    ¿Conseguiste tocar?

    0 tocaron 0 aún no

    ¡Graba un vídeo tocando Regozija y envianoslo!

    00:00 / 00:00
    outros vídeos desta música
    repetir qualidade Automático
    Outros vídeos desta música
    00:00 / 00:00
    Automático
    OK