Cifra Club

Vou Deixar Na Cruz

Kleber Lucas

Cifrado: Principal (guitarra y guitarra eléctrica)
Quer fazer aulas de música com a gente? Responda essas perguntas
e nos ajude nesse projeto! →
tono: Dm
[Intro] Dm  Bb9  F/A  C  
        Dm7  Bb9  F

E|------------------------------------------|
B|-5/6-5----------5/6-5---------------------|
G|-------5---5h7----------5-5/7-------------|
D|---------7------------7-------------------|
A|------------------------------------------|
E|------------------------------------------|

E|------------------------------------------|
B|---------------1--------------------------|
G|-------2h3p2-0----------------------------|
D|---3-5------------------------------------|
A|-3----------------------------------------|
E|------------------------------------------|

[Primeira Parte]

 F9
Sua morte ali na cruz
      F7M
Carregando a minha dor
           Bb7M    Bb7M(9)
Você se expôs por mim
         F9
Se entregou em meu lugar
      F7M
E me deu uma nova chance
         Bb7M
Eu vou recomeçar

[Refrão]

                Dm7          
Vou deixar na cruz 
               Bb9
Tudo o que passou
              F/A          C
Tudo o que ficou pra trás
            Dm7      
Olho pra você
             Bb9
Corro pra Você
                F/A  F
O Seu amor me chama

[Segunda Parte]

     F9
Sua morte ali na cruz
      F7M
Carregando a minha dor
           Bb9
Você se expôs por mim
         F9
Se entregou em meu lugar
      F7M
E me deu uma nova chance
    Bb9
Eu vou recomeçar

[Refrão]

                Dm7          
Vou deixar na cruz 
               Bb9
Tudo o que passou
              F/A         C
Tudo o que ficou pra trás
            Dm7      
Olho pra você
             Bb9
Corro pra Você
                F/A  F
O Seu amor me chama

[Ponte]

      C9            
Eu dependo desse amor
         Gm           F
Do Seu amor mais que tudo
       C9                   
Eu confio 
                     Gm     
Que esse amor tem poder 
           F
Pra curar dores

[Solo] C9  Gm  F 
       C9  Gm  F

E|---18b20---------17-17b-----------------------------|
B|-----------------------15-15~---15/18\13~-----------|
G|---------17-17--------------------------------------|
D|----------------------------------------------------|
A|----------------------------------------------------|
E|----------------------------------------------------|

E|--------------------------------------18-17---------|
B|--8h10----8-10-10/11-10-------15b17-----------------|
G|--10---10---10-10----10--5--------------------------|
D|----------------------------------------------------|
A|----------------------------------------------------|
E|----------------------------------------------------|

E|----------------------------------------------------|
B|---------13-15-15b18--15~-8-10-10/11-10~------------|
G|--12/14---------------------------------------------|
D|----------------------------------------------------|
A|----------------------------------------------------|
E|----------------------------------------------------|

[Refrão]

                Dm7          
Vou deixar na cruz 
               Bb9
Tudo o que passou
              F/A         C
Tudo o que ficou pra trás
            Dm7      
Olho pra você
             Bb9
Corro pra Você
                F
O Seu amor me chama

Me chama
Composición de Duda Andrade / Kleber Lucas Valmir Bessa
7.000 vistas
  • Simplificar cifrado
    • ½ Tono
    • Am
    • Bbm
    • Bm
    • Cm
    • C#m
    • Dm
    • Ebm
    • Em
    • Fm
    • F#m
    • Gm
    • G#m
  • Agregar a la lista

    0 comentarios

    Ver todos los comentarios
    00:00 / 00:00
    Outros vídeos desta música
    Repetir Calidad Automático
    Outros vídeos desta música
    00:00 / 00:00
    Automático
    OK