Cifra Club

Stray Bullet

Kmfdm

Cifrado: Principal (guitarra y guitarra eléctrica)
tono: G
From the album SYMBOLS
tabbed by javi_twiggy


main riff:
e|----------------------------------------------------------------------|
b|----------------------------------------------------------------------|
g|----------------------------------------------------------------------|
d|-------------------------------2--------------------------------------|
a|--------4-----2----------4----------4-------4---2----4-------4---2----|
e|--2-0-2---2-0------2-0-2---2-0--------2-0-2---0--------2-0-2---0------|

pre-chorus:
e|--2------0-------0-----|
b|--2------0-------0-----|
g|--4------0-------2-----|
d|--4------2-------2-----|
a|--2------2-------0-----|
e|---------0-------------|

bass on pre-chorus:
g|-----------------------------|
d|-----------------------------|
a|--2*-------------------------|
e|---------0*------5*----7*----|     *repeated times


that's all mecagoendios!
KL rules
have fun
00:00 / 00:00
Otros videos de esta canción
Repetir
Otros videos de esta canción
Composición de En Esch / Günter Schulz / Sascha K. Konietzko
22 vistas
    • ½ Tono
    • A
    • Bb
    • B
    • C
    • Db
    • D
    • Eb
    • E
    • F
    • F#
    • G
    • Ab
  • Agregar a la lista

    0 comentarios

    Ver todos los comentarios

    ¿Lograste tocar?

    0 Tocaron 0 Aún no

    ¡Graba un video tocando Stray Bullet y envíanoslo!

    00:00 / 00:00
    OK