Wake Up Hate

Korn

Composição: Korn
Tom: F
Tuning: 1 Step Down (A,D,G,C,F,A,D)

INTRO:
|------------------------------------------------|
|------------------------------------------------|
|------------------------------------------------|
|------------------------------------------------|
|------------------------------------------------|
|------------------------------------------------|
|-0-10-12--0-10-12--0-10-12--0-10-12--0-13-13-13-|

CHORUS:
|------------------------------------------------|
|------------------------------------------------|
|------------------------------------------------|
|------------------------------------------------|
|------------------------------------------------|
|---12-14----12-14----12-14----12-14----15-15-15-|
|-0-10-12--0-10-12--0-10-12--0-10-12--0-13-13-13-|

VERSE: (palm mute)
|---------------------------------------------------|
|---------------------------------------------------|
|---------------------------------------------------|
|---------------------------------------------------|
|---------------------------------------------------|
|---------------------------------------------------|
|-0-1-1-0-1--0-1-1-0-1--0-2--2-0-1-1-0-1--0-1-1-0-1-|

VERSE B: (guitar 1)
|--------------------------|
|--------------------------|
|--------------------------|
|--------------------------|
|--------------------------|
|--------------------------|
|-2-1--1--0-1-2-1-0-1--0-0-|

VERSE B: (guitar 2) (w/ effect)
|--------|
|--------|
|--------|
|-11--10-|
|--------|
|--------|
|--------|

VERSE C:
|--------------------------------------------------|
|--------------------------------------------------|
|--------------------------------------------------|
|--------------------------------------------------|
|--------------------------------------------------|
|--------------------------------------------------|
|-2-1-1-0--0-2-1-1-0--0-2-1-1-0--0-2-2-2-2-2-2-2-2-|

INTERLUDE:
|---------------------------------------|
|---------------------------------------|
|---------------------------------------|
|---------------------------------------|
|---------------------------------------|
|-0h1-2--1--------0h1-2--2--1--1--------|
|-----------3--2-----------------3--3-2-|

INTERLUDE 2:
|-------------------------------------------|
|-------------------------------------------|
|-------------------------------------------|
|-------------------------------------------|
|-------------------------------------------|
|-------------------2-----------------------|
|-2-3-2--2-3-2--2-3---3--2-3-2--2-2-3-3-3-2-|
Página 1 / 1

Letras y titulo
Acordes y artista

restablecer los ajustes
OK