Cifra Club

Fragil Al Viento

Kraken

Tablatura: Principal (guitarra)
Tom: F
E|----------------------------------------------------------------------------------------------------------------------------------|
B|----------------3--1-------------1--3--1------------1-----------------------------------------------------------------------------|
G|-----------------------2--3p----------------2----3-----3--0-----------------------------------------------------------------------|
D|-----------------------------------------------------------------3--2--0--2--3--2--3--2--3--2--3--2--3--2--3--2--3--0--2--3-------|
A|-----------0----------------------------------------------------------------------------------------------------------------------|
E|----------------------------------------------------------------------------------------------------------------------------------|


E|----------------------------------------------------------------------------------------------------------------------------------|
B|----------------3--1-------------1--3--1------------1-----------------------------------------------------------------------------|
G|-----------------------2--3p----------------2----3-----3--0-----------------------------------------------------------------------|
D|-----------------------------------------------------------------3--2--0--2--3--2--3--2--3--2--3--2--3--2--3--2--3--0-------------|
A|-----------0----------------------------------------------------------------------------------------------------------------------|
E|----------------------------------------------------------------------------------------------------------------------------------|


INTRO
Gm Am Dm C
Bb Bb A A/G A/F A/E
Dm C Bb Am

Gm Am Dm C
Bb Bb A A/G A/F A/E
Dm Dm Dm Dm



   Dm                           Bb
En suplicas de amor me he convertido

      Dm                     Gm       A
no encuentro una salida y me siento morir

Dm
como podre vivir

         Bb                           Am               Dm
sin descifrar,la intensidad de los designios, bajo mi signo.


     Dm                              Bm
Mis huellas bajo el sol, hoy sienten frio

   Dm                             Bb
buscando una respuesta, me he perdido si

           Gm    C
y es que estoy aqui

      F       Dm
sin saber si huir

        Bb                   Am            Dm
o enfrentar y sepultar en el olvido, lo ya vivido...


      Dm
donde queda...

       Gm          Am         F
todo aquello que vivi, donde quedara

       Bb                     Am
cada palabra que sentí, donde quedan


      Gm            C
las pequeñas cosas simples


           Gm          C
si hoy me duele comprender

     F             Bb
el ayer que ya se fué

        Gm                          Bb      A
y que jamás, regresará, haciendo distinto...

           Dm  C Bb Am
huella y camino

Gm Am Dm C
Bb Bb A A/G A/F A/E
Dm C Bb Am

Gm Gm C C
F F Bb Bb
E E A A/G A/F A/E

       Dm
donde queda...

       Gm          Am         F
todo aquello que vivi, donde quedara

       Bb                     Am
cada palabra que sentí, donde quedan

      Gm            C
las pequeñas cosas simples


           Gm          C
si hoy me duele comprender

     F             Bb
el ayer que ya se fué

        Gm                          Bb      A
y que jamás, regresará, haciendo distinto...

           Dm  C Bb Am
huella y camino

SOLO
Gm Gm C C
F F Bb Bb
E E A A/G A/F A/E
Dm Dm

POSTLUDE
Gm Am Dm C
Bb Bb A A/G A/F A/E
Dm
reproducciones 1.438
Acordes para:
    Colaboración y revision:
    • Victor Ossa

    0 comentarios

    mostrar más comentarios

    ¿Conseguiste tocar?

    0 tocaron 0 aún no

    ¡Graba un vídeo tocando Fragil Al Viento y envianoslo!

    00:00 / 00:00
    outros vídeos desta música
    repetir qualidade Automático
    Outros vídeos desta música
    00:00 / 00:00
    Automático
    OK