Cifra Club

Throw Me A Rope

KT Tunstall

Tablatura: Principal (guitarra)
Tom: G
(intro)
(verse 1)
(intro)
(verse 2)
(chorus)
(intro)
(verse 3)
(chorus)

(intro)

E|---3---------------3---------------3---------------3--------------------------------------|
B|-------3-------3-------3-------3-------3-------3-------3------3----3----------------------|
G|-----0---0---0---0---0---0---0---0---0---0---0---0---0---0--0----0------------------------|
D|------------------------------------------------------------------------------------------|
A|---------------------------0-------3-------3-------3-------3----2-------------------------|
E|---3-------3-------3----------------------------------------------------------------------|

E|---3---------------3---------------3---------------3--------------------------------------|
B|-------3-------3-------3-------3-------3-------3------3---------3-------------------------|
G|-----0---0---0---0---0---0---0---0---0---0---0---0-------0---0----------------------------|
D|------------------------------------------------------------------------------------------|
A|---------------------------0-------3-------3-------3-------3------------------------------|
E|---3-------3-------3----------------------------------------------------------------------|

(verse 1)
I want you in between me and the feeling I get when I miss you
E|---2-------2-------1-------1-------0-------0-------2-------3------------------------------|
B|-------3-------3-------3-------3-------3-------3-------3------3---------------------------|
G|-----0---0---0---0---0---0---0---0---0---0---0---0---0---0--0---0-------------------------|
D|------------------------------------------------------------------------------------------|
A|-----------------------------------3-------3-------3-------3------------------------------|
E|---3-------3-------1-------1--------------------------------------------------------------|

But everything here is telling me I should be fine
E|---0-----------0---0-------2---3---3-------2-------3--------------------------------------|
B|-------2---3-----------3---------------3-------3-------3-------3--------------------------|
G|-----0---0---0---0---0---0---0---0---0---0---0---0---0---0---0---0------------------------|
D|------------------------------------------------------------------------------------------|
A|---0-------0-------3-------3-------3------------------------------------------------------|
E|-------------------------------------------2-------3-------3------------------------------|

So why is it so, above as below, that I'm missing you every time
E|---0-----------0---0-------2-------3-------2----------------------------------------------|
B|-------2---3-----------3-------3-------3-------3------------------------------------------|
G|-----0---0---0---0---0---0---0---0---0---0---0---0----------------------------------------|
D|------------------------------------------------------------------------------------------|
A|---0-------0-------3-------3-------3------------------------------------------------------|
E|-------------------------------------------2----------------------------------------------|

(intro)
E|---3---------------3---------------3---------------3--------------------------------------|
B|-------3-------3-------3-------3-------3-------3-------3------3----3----------------------|
G|-----0---0---0---0---0---0---0---0---0---0---0---0---0---0--0----0------------------------|
D|------------------------------------------------------------------------------------------|
A|---------------------------0-------3-------3-------3-------3----2-------------------------|
E|---3-------3-------3----------------------------------------------------------------------|


E|---3---------------3---------------3---------------3--------------------------------------|
B|-------3-------3-------3-------3-------3-------3------3---------3-------------------------|
G|-----0---0---0---0---0---0---0---0---0---0---0---0-------0---0----------------------------|
D|------------------------------------------------------------------------------------------|
A|---------------------------0-------3-------3-------3-------3------------------------------|
E|---3-------3-------3----------------------------------------------------------------------|

(verse 2)
I got used to you whispering things to me into the evening
E|---2-------2-------1-------1-------0-------0-------2-------3------------------------------|
B|-------3-------3-------3-------3-------3-------3-------3------3---------------------------|
G|-----0---0---0---0---0---0---0---0---0---0---0---0---0---0--0---0-------------------------|
D|------------------------------------------------------------------------------------------|
A|-----------------------------------3-------3-------3-------3------------------------------|
E|---3-------3-------1-------1--------------------------------------------------------------|

We followed the sun and its colors and left this world
E|---0-----------0---0-------2---3---3-------2-------3--------------------------------------|
B|-------2---3-----------3---------------3-------3-------3-------3--------------------------|
G|-----0---0---0---0---0---0---0---0---0---0---0---0---0---0---0---0------------------------|
D|------------------------------------------------------------------------------------------|
A|---0-------0-------3-------3-------3------------------------------------------------------|
E|-------------------------------------------2-------3-------3------------------------------|

It seems to me that I'm definitely hearing the best that I've heard
E|---0-----------0---0-------2-------3-------2-------3-------2------------------------------|
B|-------2---3-----------3-------3-------3-------3-------3-------3--------------------------|
G|-----0---0---0---0---0---0---0---0---0---0---0---0---0---0---0---0------------------------|
D|------------------------------------------------------------------------------------------|
A|---0-------0-------3-------3-------3------------------------------------------------------|
E|-------------------------------------------2-------3-------2------------------------------|

(chorus)
So throw me a rope to hold me in place
E|---0-------0-------0-------2---3---3-------3-------2-------2------------------------------|
B|-------0-------0-------3---------------3-------3-------3-------3--------------------------|
G|-----0---0---0---0---0---0---0---0---0---0---0---0---0---0---0---0------------------------|
D|------------------------------------------------------------------------------------------|
A|-------------------3-------3-----------------------2-------2------------------------------|
E|---0-------0-----------------------3-------3----------------------------------------------|

Show me a clock for counting my days down
E|---0-------0-------0-------2---3---3-------3-------2-------2------------------------------|
B|-------0-------0-------3---------------3-------3-------3-------3--------------------------|
G|-----0---0---0---0---0---0---0---0---0---0---0---0---0---0---0---0------------------------|
D|------------------------------------------------------------------------------------------|
A|-------------------3-------3-----------------------2-------2------------------------------|
E|---0-------0-----------------------3-------3----------------------------------------------|

Cause everything's easier when you're beside me, come back and find me cause I feel alone
E|---0-------0-------0-------2---3---3-------3-------3-------3------------------------------|
B|-------0-------0-------3---------------3-------3-------3-------3--------------------------|
G|-----0---0---0---0---0---0---0---0---0---0---0---0---0---0---0---0------------------------|
D|---------------------------------------------------0-------0------------------------------|
A|-------------------3-------3--------------------------------------------------------------|
E|---0-------0-----------------------3-------3----------------------------------------------|

(intro)
E|---3---------------3---------------3---------------3--------------------------------------|
B|-------3-------3-------3-------3-------3-------3-------3------3----3----------------------|
G|-----0---0---0---0---0---0---0---0---0---0---0---0---0---0--0----0------------------------|
D|------------------------------------------------------------------------------------------|
A|---------------------------0-------3-------3-------3-------3----2-------------------------|
E|---3-------3-------3----------------------------------------------------------------------|

E|---3---------------3---------------3---------------3--------------------------------------|
B|-------3-------3-------3-------3-------3-------3------3---------3-------------------------|
G|-----0---0---0---0---0---0---0---0---0---0---0---0-------0---0----------------------------|
D|------------------------------------------------------------------------------------------|
A|---------------------------0-------3-------3-------3-------3------------------------------|
E|---3-------3-------3----------------------------------------------------------------------|

(verse 3)
And whenever you go it's like holding my breath underwater
E|---2-------2-------1-------1-------0-------0-------2-------3------------------------------|
B|-------3-------3-------3-------3-------3-------3-------3------3---------------------------|
G|-----0---0---0---0---0---0---0---0---0---0---0---0---0---0--0---0-------------------------|
D|------------------------------------------------------------------------------------------|
A|-----------------------------------3-------3-------3-------3------------------------------|
E|---3-------3-------1-------1--------------------------------------------------------------|

I have to admit that I kind of like it when I do
E|---0-----------0---0-------2---3---3-------2-------3--------------------------------------|
B|-------2---3-----------3---------------3-------3-------3-------3--------------------------|
G|-----0---0---0---0---0---0---0---0---0---0---0---0---0---0---0---0------------------------|
D|------------------------------------------------------------------------------------------|
A|---0-------0-------3-------3-------3------------------------------------------------------|
E|-------------------------------------------2-------3-------3------------------------------|

Oh but I've got to be unconditionally unafraid of my days without you
E|---0-----------0---0-------2-------3-------2-------3-------2------------------------------|
B|-------2---3-----------3-------3-------3-------3-------3-------3--------------------------|
G|-----0---0---0---0---0---0---0---0---0---0---0---0---0---0---0---0------------------------|
D|------------------------------------------------------------------------------------------|
A|---0-------0-------3-------3-------3------------------------------------------------------|
E|-------------------------------------------2-------3-------2------------------------------|

(chorus)
So throw me a rope to hold me in place
E|---0-------0-------0-------2---3---3-------3-------2-------2------------------------------|
B|-------0-------0-------3---------------3-------3-------3-------3--------------------------|
G|-----0---0---0---0---0---0---0---0---0---0---0---0---0---0---0---0------------------------|
D|------------------------------------------------------------------------------------------|
A|-------------------3-------3-----------------------2-------2------------------------------|
E|---0-------0-----------------------3-------3----------------------------------------------|

Show me a clock for counting my days down
E|---0-------0-------0-------2---3---3-------3-------2-------2------------------------------|
B|-------0-------0-------3---------------3-------3-------3-------3--------------------------|
G|-----0---0---0---0---0---0---0---0---0---0---0---0---0---0---0---0------------------------|
D|------------------------------------------------------------------------------------------|
A|-------------------3-------3-----------------------2-------2------------------------------|
E|---0-------0-----------------------3-------3----------------------------------------------|

Cause everything's easier when you're beside me, come back and find me
E|---0-------0-------0-------2---3---3-------3-------2------0h2----2------------------------|
B|-------0-------0-------3---------------3-------3-------3-----3----3-----------------------|
G|-----0---0---0---0---0---0---0---0---0---0---0---0---0---0-----0--------------------------|
D|------------------------------------------------------------------------------------------|
A|-------------------3-------3-----------------------2-------2------------------------------|
E|---0-------0-----------------------3-------3----------------------------------------------|

Whenever I'm falling you're always behind me, come back and find me
E|---0-------0-------0-------2---3---3-------3-------2------2h3p2---2-----------------------|
B|-------0-------0-------3---------------3-------3-------3--------3--3----------------------|
G|-----0---0---0---0---0---0---0---0---0---0---0---0---0---0--------------------------------|
D|------------------------------------------------------------------------------------------|
A|-------------------3-------3-----------------------2-------2------------------------------|
E|---0-------0-----------------------3-------3----------------------------------------------|

Cause everything's easier when you're beside me, come back and find me cause I feel alone
E|---0-------0-------0-------2---3---3-------3-------3-------3---------3--------------------|
B|-------0-------0-------3---------------3-------3-------3-------3-----3--------------------|
G|-----0---0---0---0---0---0---0---0---0---0---0---0---0---0---0---0---0--------------------|
D|---------------------------------------------------0-------0---------0--------------------|
A|-------------------3-------3-----------------------------------------2--------------------|
E|---0-------0-----------------------3-------3-------------------------3-----------END|-----|
reproducciones 144
Acordes para:
    Composição: KT Tunstall Colaboración y revision:
    • Pedro Paccola

    0 comentarios

    mostrar más comentarios

    ¿Conseguiste tocar?

    0 tocaron 0 aún no

    ¡Graba un vídeo tocando Throw Me A Rope y envianoslo!

    00:00 / 00:00
    outros vídeos desta música
    repetir qualidade Automático
    Outros vídeos desta música
    00:00 / 00:00
    Automático
    OK