Cifra Club

White Bird

KT Tunstall

Tablatura: Principal (guitarra)
Tom: G
Tabbed by: p-nutz
Tuning: standard

Intro and verse:

e|-0-------0------------0--------------5--0---------0------------|
B|-----1--------0-h1-p0------1----3------------1--------0-h1-p0--|
G|---2---2---2-------------2---2--4--4-------2---2----2----------|
D|---------------------------------------------------------------|
A|-0-------0------------0---------0-------0---------0------------|
E|---------------------------------------------------------------|

e|-0--------0-------------5--0--------0------------3-2-----3-2-----|
B|-----1--------1----3-----------1--------0-h1-p0------3-------3---|
G|---2---2----2---2--4--4------2---2----2----------------2-------2-|
D|-------------------------------------------------0-0-----0-0-----|
A|-0--------0--------0-------0--------0----------------------------|
E|-----------------------------------------------------------------|


chorus:
e|-3-2-----3-2-----3-3-2-2-----------------------3-2-2----3-2----------|
B|-----3-------3------------2--2--3--3--4--4--5--------3------3--------|
G|-------2-------2------------2--2--2--2--2--2----------2-------2------|
D|-0-0-----0-0-----0-0-0-0--2-----2-----2-----2--0-0------0-0----------|
A|---------------------------------------------------------------------|
E|---------------------------------------------------------------------|

e|-3-3-2-2---------------------------3-2-----3-2-----3-2----|
B|---------2---2--3---3---4---4---5------3-------3----------|
G|-----------2--2---2---2---2---2----------2-------2--------|
D|-0-0-0-0-2------2-------2-------2--0-0-----0-0-----0-0----|
A|----------------------------------------------------------|
E|----------------------------------------------------------|

Bridge:
e|---------------------3-2-----3-2-----3-2----|
B|-1----3-3---1---3-3------3-------3----------|
G|-2----4-4---2---4-4--------3-------2--------|
D|---------------------0-0-----0-0-----0-0----|
A|-0----0-0---0---0-0-------------------------|
E|--------------------------------------------|


h-hammer on     p-pull off
reproducciones 30
Acordes para:
    Composição: KT Tunstall

    0 comentarios

    mostrar más comentarios

    ¿Conseguiste tocar?

    1 tocaron 0 aún no

    ¡Graba un vídeo tocando White Bird y envianoslo!

    00:00 / 00:00
    outros vídeos desta música
    repetir qualidade Automático
    Outros vídeos desta música
    00:00 / 00:00
    Automático
    OK