Cifra Club

Disfraz

Kudai

Tablatura: Principal (guitarra)
Tom: C
Intro:
E|--------------0-------------------|
B|-----------0--------0----1--------|
G|--------2-------------------------|
D|------2-----------2----2----------|
A|--0-------------------------------|
E|----------------------------------|

E|--------------0-------------------|
B|-----------0--------0----1--------|
G|--------2-------------------------|
D|------2-----------2---------------|
A|--0-------------------------------|
E|----------------------------------|

E|-----0----------------------------|
B|-----1----------------------------|
G|-----2----------------------------|
D|------2---------------------------|
A|-----0----------------------------|
E|----------------------------------|

E|------------------------------------|
B|------------------------------------|
G|----9---10---12-----9/10--9--7--9---|
D|------------------------------------|
A|------------------------------------|
E|------------------------------------|

Am
Puedo comprender
     C
Que así vas a esconder
     F
Es porque no quieres ver
     E
Los dedos que apuntan

Am
Como culpandote
    C
Por no ser tan normal
    F
Por llevar ese disfraz
    E
De lágrimas negras

       F
Que en solo una mirada
    G
Dices que lo sientes
      Am
Que quieres escapar muy lejos
 F            E      E7
Sin regresar jamá aa aas (Riff 2)
E|--------------------
B|--12/11--12--10--12-
G|--------------------
D|--------------------
A|--------------------
E|--------------------

Am                F
Quiero salir de aquí
Y no mirar hacia atrás
   G               E
Quiero escapar otra vez
Y no volver nunca más
Am
Si me va atrás sin miedo
        F
Sin pensar en nadie más
         G
Sin esconderme atrás de este disfraz
                E
Ya no como un castigo mil veces
E|--------------------
B|--12/11--12--10--12-
G|--------------------
D|--------------------
A|--------------------
E|--------------------

Quiero salir de mi
Quiero obligarme a caer
Quiero escapar una vez
Y no volver nunca más

Sin tener que estar como escondido
Yo no sé de que como una culpa
Tocame la piel sin miedo
Quedate hasta que caiga el sol
E|--------------0-------------------|
B|-----------0--------0----1--------|
G|--------2-------------------------|
D|------2-----------2----2----------|
A|--0-------------------------------|
E|----------------------------------|

Am
Dime que pasó
          C
En que momento me perdi
          F
Quisiera desaparecer
       E
Por un instante perderme
   Am   C   F     E
De mi, aqui, sentir, ohhh

       F
Que en solo una mirada
    G
Dices que lo sientes
      Am
Que quieres escapar muy lejos
 F          E      E7
Sin regresar jamás
E|--------------------
B|--12/11--12--10--12-
G|--------------------
D|--------------------
A|--------------------
E|--------------------

Am                F
Quiero salir de aquí
Y no mirar hacia atrás
   G               E
Quiero escapar otra vez
Y no volver nunca más
Am
Si me va atrás sin miedo
        F
Sin pensar en nadie más
         G
Sin esconderme atrás de este disfraz
                E
Ya no como un castigo mil veces
E|--------------------
B|--12/11--12--10--12-
G|--------------------
D|--------------------
A|--------------------
E|--------------------

Quiero salir de mi
Quiero obligarme a caer
Quiero escapar una vez
Y no volver nunca más

Sin tener que estar como escondido
Yo no sé de que como una culpa
Tocame la piel sin miedo
Quedate hasta que caiga el sol

F
Si me para atrás el miedo
       G
Sin pensar en nadie más
                   Am
Sin esconderme atrás de este disfraz
Como un castigo em mi
F
Sin tener que estar como escondido
 G
Yo no sé de que como una culpa
   Am
Tocame la piel sin miedo
Queda hasta que caiga el sol

'Sin pensar en nadie más
Sin esconderme atrás de este disfraz
Sin esconderme atrás de este disfraz
Como un castigo em mi
reproducciones 532
Acordes para:
    Colaboración y revision:
    • Karina

    0 comentarios

    mostrar más comentarios

    ¿Conseguiste tocar?

    1 tocaron 0 aún no

    ¡Graba un vídeo tocando Disfraz y envianoslo!

    00:00 / 00:00
    outros vídeos desta música
    repetir qualidade Automático
    Outros vídeos desta música
    00:00 / 00:00
    Automático
    OK