Cifra Club

Lejos de la ciudad

Kudai

Tablatura: Principal (guitarra)
Tom: F#
Intro: 
||--------------------------------------------------------||
||-----0-----0-------0-----------0-----0-------0--------0-||
||---3-----3-------3---3-------3-----3-------3---3------3-||
||-1-------------4-------4---1-------------4-------4----4-||
||-------4-----2-----------2-------4-----2-----------2--2-||
||--------------------------------------------------------||
                          
  F#  
El mismo lugar 
   A#m  
A s calles y el mar 
   B              Bm             F#  
A  luna ilumina las horas de mi soledad 
  C#      B  
¿Y donde estas  
 
      F#  
Aun puedo escuchar 
    A#m  
Tus pasos tu andar 
     B             Bm 
El viento me trae los besos que hoy ya no 
   F#    C#   G#m      B  
Estarán ¿Y donde estas  
G#m          C#  
Yo aquí te espero  
 
 {Coro} 
 
 G#m     B   F#     A#m  
Y aun recuerdo ese momento 
    G#m     B   F#  F#/E  
Tus besos al despertar 
   G#m     B       F#       A#m  
A  brisa el viento, la luz del puerto 
    G#m      B  
Tan lejos de la ciudad  
 
El frió se irá, la luz volverá Y espero que entonces, El tiempo nos 
||-------------------------------------------------||
||-------------------2-----------4-----------3-----||
||-------3---------3---3-------4---4-------4---4---||
||-----4---4-----3-------3---4-------4---4-------4-||
||---4-------4-1-----------2-----------2-----------||
||-2-----------------------------------------------||

 
 vuelva a encontrar       ¿Donde estarás?
 
||--------------------------------------------------||
||-------------------6-----------4-----------4------||
||-------3---------6---6-------4---6-------4---4----||
||-----4---4-----6-------6---6-------4---4-------4--||
||---4-------4-4-----------6-----------2------------||
||-2------------------------------------------------||

 G#m          C#  
Yo aquí te espero  
 
 {Coro} 
 
  G#m    B   F#     A#m  
Y aun recuerdo ese momento 
    G#m      B  F#   F#/E  
Tus besos al despertar 
   G#m      B      F#       A#m  
A  brisa, el viento, la luz del puerto 
    G#m      B  F# m   C#  
Tan lejos de la ciudad  
 
Em    B    D    A    C#  
 
 {Coro}  
  G#m    B   F#     A#m  
Y aun recuerdo ese momento 
    G#m      B    F#  F#/E  
Tus besos al despertar 
   G#m      B      F#       A#m  
A  brisa, el viento, la luz del puerto 
    G#m     B   F#   F#/E  
Tan lejos de la ciudad 
    G#m     B   F#   A#m  
Tan lejos de la ciudad 
    G#m     B   F#   F#/E  
Tan lejos de la ciudad 
   G#m      B  
Tan lejos de la ciudad

||--------------------------------------------------------||
||-----0-----0-------0-----------0-----0-------0--------0-||
||---3-----3-------3---3-------3-----3-------3---3------3-||
||-1-------------4-------4---1-------------4-------4----4-||
||-------4-----2-----------2-------4-----2-----------2--2-||
||--------------------------------------------------------||
reproducciones 3.534
Acordes para:
    Composição: Gustavo Pinochet Colaboración y revision:
    • Jéssica Rafaiel

    0 comentarios

    mostrar más comentarios

    ¿Conseguiste tocar?

    0 tocaron 0 aún no

    ¡Graba un vídeo tocando Lejos de la ciudad y envianoslo!

    00:00 / 00:00
    outros vídeos desta música
    repetir qualidade Automático
    Outros vídeos desta música
    00:00 / 00:00
    Automático
    OK