Cifra Club

Ay Amor

Kumbia Kings

Cifrado: Principal (guitarra y guitarra eléctrica)
tono: Bm
E|-0-2-3--3-2-0---0-2-5-5-0-2-3-3-2-0---------------------|
B|--------------3------5-3-----------2-3------------------|
G|--------------------------------------------------------|
D|--------------------------------------------------------|

Porfavor no digas nada, solo dejame terminar de hablar..



Em           A
Nunca me costo tanto llamarte,
D              Bm
porque se que voy a lastimarte,
Em            F#
Hoy voy a tener que confesarte
     Bm
que algo no anda bien entre tu y yo.


Em            A
Se que prometi nunca marcharme,
D            Bm
pero al corazon no hay quien lo mande,
Em           F#
tu no te mereces que te engañe,
     Bm
por eso lo mejor es este adios.


CORO
Em     A
Hay amor, como me duele
D     Bm
Hay amor, no poder verte
Em     F#
Hay amor, debes creerme,
       Bm
no es tuyo solamente este dolor



Em     A
Hay amor, como me duele
D     Bm
Hay amor, que nada quede
Em     F#
Hay amor, como pretendes
     Bm
quedarte si el amor ya se marcho.

Em A D Bm Em F# Bm

G  O:


E|-15-15-14-14-12-12--12------12--14-14-12-12-------------|
B|------------------15---14-15---------------15-15-14-15--|
G|--------------------------------------------------------|
D|--------------------------------------------------------|

E|---------15--15-14--------------------------------------|
B|-12-14-15---------14-15--14-15-14-12-12-14-15-----------|
G|--------------------------------------------------------|
D|--------------------------------------------------------|

Em         A
Yo jure que nunca iba a engañarte,
D           Bm
es por eso que voy a alejarme,
Em                 F#
porque hay alguien mas que quiere amarme..
    Bm
Te juro que no era mi intension.



Em            A
Se que prometi nunca marcharme,
D            Bm
pero al corazon no hay quien lo mande,
Em           F#
tu no te mereces que te engañe,
     Bm
por eso lo mejor es este adios.

CORO
Em     A
Hay amor, como me duele
D     Bm
Hay amor, no poder verte
Em     F#
Hay amor, debes creerme,
       Bm
no es tuyo solamente este dolor



Em     A
Hay amor, como me duele
D     Bm
Hay amor, que nada quede
Em     F#
Hay amor, como pretendes
     Bm
quedarte si el amor ya se marcho.



Em                 A
Necesito que lo entiendas,
                   D
no intentaba lastimarte,
        F#             Bm
no lo entiendo me fallo este corazon.


    Em
El amor cambio de casa,
           F#
ya no hay nada que nos ata..
       Bm
y me duele que no encuentro una razon.

CORO


Em     A
Hay amor, como me duele
D     Bm
Hay amor, no poder verte
Em     F#
Hay amor, debes creerme,
       Bm
no es tuyo solamente este dolor



Em     A
Hay amor, como me duele
D     Bm
Hay amor, que nada quede
Em     F#
Hay amor, como pretendes
     Bm
quedarte si el amor ya se marcho.




INTRO : este es opcional, por si no les alcanzan los
d2 para tocarlo en la parte de abajo, = se escucha bien
aver cual les parece mas comodo

E|-3-3-2-2-0-0-0---0-2-2-0-0--------------3-3-2-----------|
B|------------3-2-3----------3-3-2-3-0-2-3-----2-3-2-3-2-0|
G|--------------------------------------------------------|
D|--------------------------------------------------------|

E|---------|
B|-0-2-3---|
G|---------|
D|---------|
00:00 / 00:00
Otros videos de esta canción
Repetir
Otros videos de esta canción
Composición de A.B. Quintanilla III / Luigi Giraldo
34 exhibiciones
    • ½ Tono
    • Am
    • Bbm
    • Bm
    • Cm
    • C#m
    • Dm
    • Ebm
    • Em
    • Fm
    • F#m
    • Gm
    • G#m
  • Agregar a la lista
    00:00 / 00:00
    OK