Cifra Club

Nuotando Nellaria

Marlene Kuntz

Cifrado: Principal (guitarra y guitarra eléctrica)
Selo Cifra Club: esta cifra foi revisada para atender aos critérios oficiais da nossa Equipe de Qualidade.
tono: E
E|----------------------------|
B|----------------------------|
G|----------------------------|
D|----------------------------|
A|----7--6---2--2--2--2--2----|
E|-0--0--0------0-----0-------|

E|----------------------------|
B|----------------------------|
G|----------------------------|
D|----------------------------|
A|----7--6---2--2--2--2--2----|
E|-0--0--0------0-----0-------|

E|----------------------|
B|----------------------|
G|----------------------|
D|----------4--4--4-----|
A|--7--6----6--6--6-----|
E|4-4--4--4-------------|

E|-----------------------------|
B|-----------------------------|
G|-----------------------------|
D|--------------------6--6-----|
A|---7--6----4--4--4--4--4-----|
E|5--5--5--5-5--5-----5--------|

Nuotando nell' aria.
Odori dell' amore nella pelle dolente tremante ardente.
G#m                  A         E
Il cuore domanda cos'è che manca.
E
Perchè si sente male,molto male
G#m                    A      E
Amando,amando,amandoti ancora.

E     G#m    E (X2)
G#m   A   G#m    B A  G#m  (X4)

E                                           G#m
Nel letto,aspetto ogni giorno un pezzo di te,
      A                          E
Un bagno di gioia dal tuo sorriso,
E                                               G#m
E non mi basta nuotare nell' aria per immaginarti.
          A           E
Se tu sapessi che pena.
E                                          G#m
Intanto,l' aria intorno più nebbia che altro,
    A                              E
L' aria più nebbia che altro.ahhh..

E (x4) A (x2)

E
certo un brivido averti qui con me,
            G#m                      A
In volo libero,sugli anni andati ormai.
           E                                      G#m
E non facile,dovresti credermi,sentirti qui con me,
       A
Perchè tu non ci sei.
E                                                  G#m
Mi piacerebbe sai,sentirti piangere,anche una lacrima,
                A
Per pochi attimi.
E                                                   G#m
Mi piacerebbe sai sentirti piangere,anche una lacrima,
               A
Per pochi attimi
Otros videos de esta canción
    0 exhibiciones
      • ½ Tono
      • A
      • Bb
      • B
      • C
      • Db
      • D
      • Eb
      • E
      • F
      • F#
      • G
      • Ab
    • Agregar a la lista

    Afinação da cifra

    Afinador online

      Ops (: Contenido disponible solo en portugués.
      OK