Cifra Club

Gje Meg Handa Di Ven

Kurt Nilsen

Cifrado: Principal (guitarra y guitarra eléctrica)
Selo Cifra Club: esta cifra foi revisada para atender aos critérios oficiais da nossa Equipe de Qualidade.
tono: G
G      3x003x   Em7   0x203x
D      xx0232   Bm7   x2423x
Dsus4  xx0233   D/F#  2x023x
C      x3201x


[Intro]

E|-----------------------------------------------|
B|--------------------------------------0--------|
G|-----0----2p0-------0-----------0----2-0-----0-| x2
D|---0---0------0-----0----0----0---0----------0-|
A|--------------------3------------------------3-|
E|-3------3-------3-----------3------3-----3-----|

[Verse 1]

        G         D              C  G
Gje meg handa di, ven, når det kveldar,
         C           Dsus4 D     G
det blir mørkt og me treng    ei hand.
        G        D       C  G
Lat dei ljose og venlege tankar
       C         Dsus4 D  G     D/F#
fylgja oss inn i draumars land.

[Chorus]

    Em7        C          D      Bm7
Lat varmen frå ein som er glad i deg
         C       D        Em7
tenna stjerner i myrkaste natt.
D/F#    G         D            C   G
Gje meg handa di, ven, når det kveldar,
         C           Dsus4 D  G
det blir mørkt og me treng ei hand.

[Verse 2]

      G         D            C   G
Varme tankar og hender som trøystar
       C        Dsus4 D G
er som sol over frosen  jord.
D/F#   Em7        D          C   G
Kjenna varmen frå ein som er nær deg
     C                 Dsus4 D G    D/F#
gjev longt meir enn de store   ord

[Chorus]

    Em7        C          D      Bm7
Lat varmen frå ein som er glad i deg
         C       D        Em7
tenna stjerner i myrkaste natt.
D/F#    G         D            C   G
Gje meg handa di, ven, når det kveldar,
         C           Dsus4 D  [Outro]
det blir mørkt og me treng ei hand.

[Outro]

Gradually slow down
E|-----------------------------------------------|
B|--------------------------------------0--------|
G|-----0----2p0-------0-----------0----2-0-----0-| x2
D|---0---0------0-----0----0----0---0----------0-|
A|--------------------3------------------------3-|
E|-3------3-------3-----------3------3-----3-----|
Otros videos de esta canción
    0 exhibiciones
      • ½ Tono
      • A
      • Bb
      • B
      • C
      • Db
      • D
      • Eb
      • E
      • F
      • F#
      • G
      • Ab
    • Agregar a la lista

    Afinação da cifra

    Afinador online

      Ops (: Contenido disponible solo en portugués.
      OK