Cifra Club

Hallelujah

Kurt Nilsen

Cifrado: Principal (guitarra y guitarra eléctrica)
Selo Cifra Club: esta cifra foi revisada para atender aos critérios oficiais da nossa Equipe de Qualidade.
tono: Em
G   320033
Em7 022033
C   032013

Capo on 5th

Intro:
     G            Em7          G              Em7

E|---------3------------3--------------3------------3------|
B|---------3------------3--------------3------------3------|
G|-------0---0--------0---0----------0---0--------0---0----|
D|-----0-------0----2-------2------0-------0----2-------2--|
A|-------------------------------2-------------------------|
E|---3------------0------------3--------------0------------|


Verse:

     G            Em7          G            Em7

E|---------3------------3------------3------------3--------|
B|---------3------------3------------3------------3--------|
G|-------0---0--------0---0--------0---0--------0---0------|
D|-----0-------0----2-------2----0-------0----2-------2----|
A|---------------------------------------------------------|
E|---3------------0------------3------------0--------------|

   I heard...     secret....     david....  pleased....

    C            D      D        G            D

E|--------3------2------3p2------3-----3------3p2-----2----|
B|--------1------3------3--------3-----3------3-------3----|
G|------0---0------2--------2------0-----0--------2-----2--|
D|----2-------2------0--------0------0-----0--------0------|
A|--3------------------------------------------------------|
E|---------------------------------------------------------|

but you...       care for music  do you?                    well it

         G               C         D         Em7          C

E|-3------3--------3---------2--------3-----3-------3-----3--------|
B|-3------3--------1---------3--------3-----3-------1-----1--------|
G|---0------0--------0---------2--------0-----0-------0-----0------|
D|-----0------0--------2---------0--------2-----2-------2-----2----|
A|-----------------------------------------------------------------|
E|-----------------------------------------------------------------|

goes ...       the fourth the fifth the minor...     major...

     D             B               Em

E|---2-----2-------2------2--------0-----0------0-----|
B|---3-----3-------4------4--------0-----0------0-----|
G|-----2------2------4------4--------0-----0----------|
D|-------0------0------4-------4--------2-----2-------|
A|----------------------------------------------------|
E|----------------------------------------------------|

the baffled king composing  Hallelujah

      C                         Em7         D

E|----------3------------3------------3-----3p2------|
B|----------1------------1------------3-----3--------|
G|--------0---0--------0---0--------0---0-------2----|
D|------2-------2----2-------2----2-------2-------0--|
A|----3------------3---------------------------------|
E|------------------------------0--------------------|

Hallelujah               Hallelujah

   C                              G           D

E|-------3--------------3---------------3-----------3p2------|
B|-------1------------1-1---------------3---------3-3---3----|
G|-----0---0--------0-----0-----------0---0-----2---------2--|
D|---2-------2----2---------2-------0-------0-0--------------|
A|-3------------3--------------------------------------------|
E|--------------------------------3--------------------------|

Hallelujah               Hallelujah


E|--------3------------3------------3------------3------|
B|--------3------------3------------3------------3------|
G|------0---0--------0---0--------0---0--------0---0----|
D|----0-------0----2-------2----0-------0----2-------2--|
A|------------------------------------------------------|
E|--3------------0------------3------------0------------|


Verse 1:

I heard there was a secret chord
that David played and it pleased the Lord
but you don't really care for music do you?
well it goes like this
the fourth the fifth the minor fall and the major lift
the baffled king composing Hallelujah

Hallelujah Hallelujah Hallelujah Hallelujah

E|---------------|
Verse 2:

well your faith was strong but you needed proof
you saw her bathing on the roof
her beauty and the moonlight overthrew you
she tied you to her kitchen chair
she broke your throne and she cut your hair
and from your lips you drew an Hallelujah

Hallelujah Hallelujah Hallelujah Hallelujah

E|---------------|
Verse 3:

maybe there's a God above
but all I've ever learned from love
was how to shoot at somebody who outdrew you
and it's not a cry that you hear at night
it's not somebody who's seen the light
it's a cold and it's a broken Hallelujah
Otros videos de esta canción
    49 exhibiciones
      • ½ Tono
      • Am
      • Bbm
      • Bm
      • Cm
      • C#m
      • Dm
      • Ebm
      • Em
      • Fm
      • F#m
      • Gm
      • G#m
    • Agregar a la lista

    Afinación de cifrado

    Afinador online

      OK