Cifra Club

Monster

L7

Tab de bajo: Principal
[Intro]

G|--------------------------| 
D|--------------------------|  (x4) 
A|---4-4-5~-----------------| 
E|0-0-0----0-5-0-5-6~-6-6-6-|

[Verso]

G|--------------------------| 
D|--------------------------|  (x4) 
A|---4-4-5~-----------------| 
E|0-0-0----0-5-0-5-6~-6-6-6-|

[Refrão]

G|-----------------------------| 
D|-----------------------------|  (x2) 
A|-----------------------------| 
E|5-5-5/7-0~-0~-3-0-3/5~-5-5-5-|

[Verso]

G|--------------------------| 
D|--------------------------|  (x6) 
A|---4-4-5~-----------------| 
E|0-0-0----0-5-0-5-6~-6-6-6-|

[Refrão] 

G|-----------------------------| 
D|-----------------------------|  (x4) 
A|-----------------------------| 
E|5-5-5/7-0~-0~-3-0-3/5~-5-5-5-|

G|-------------| 
D|-------------| 
A|-------------| 
E|5-5-3~-3-3-0~| 

[Solo]

G|--------------------------| 
D|--------------------------|  (x4) 
A|---4-4-5~-----------------| 
E|0-0-0----0-5-0-5-6~-6-6-6-|

G|--------------------------| 
D|---4-4-5~-----------------|  (x2) 
A|0-0-0----0-5-0-5-6~-6-6-6-| 
E|--------------------------|

G|--------------------------| 
D|--------------------------|  (x2) 
A|---4-4-5~-----------------| 
E|0-0-0----0-5-0-5-6~-6-6-6-|

G|-------------| 
D|-------------| 
A|-------------| 
E|5-5-3~-3-3-0~| 

[Verse]

G|--------------------------| 
D|--------------------------|  (x6) 
A|---4-4-5~-----------------| 
E|0-0-0----0-5-0-5-6~-6-6-6-|

[Refrão] 

G|-----------------------------| 
D|-----------------------------|  (x4) 
A|-----------------------------| 
E|5-5-5/7-0~-0~-3-0-3/5~-5-5-5-|

[Final]

G|----------------------| 
D|----------------------| 
A|----------------------| 
E|5-5-3~-3-3-1~-1-1-0~~~| 

G|----------| 
D|----------| 
A|----------| 
E|0-3-5-0-0-|
Composición de Suzi Gardner
Colaboración y revisión:
  • Júlio Rossi
5 vistas

0 comentarios

Ver todos los comentarios

¿Lograste tocar?

0 Tocaron 0 Aún no

¡Graba un video tocando Monster y envíanoslo!

00:00 / 00:00
Outros vídeos desta música
Repetir Calidad Automático
Outros vídeos desta música
00:00 / 00:00
Automático
OK