Cifra Club

El rap de dar

La Cuca

Cifrado: Principal (guitarra y guitarra eléctrica)
tono: Fm
Intro:
Esto va muy rápido:
E|--------------------------------------------------|
B|--------------------------------------------------|
G|-10-10-10-11-11-11-12-12-12-11-11-11-10-10-10-----|
D|--------------------------------------------------| x10
A|--------------------------------------------------|
E|--------------------------------------------------|

E|-------------------------------------------------------|
B|-------------------------------------------------------|
G|-------------------------------------------------------|
D|-------------------------------------------------------|
A|-------------------------------------------------------|
E|-666-666-9--666-666-9-9--666-666-9---------------------|

     A#5     D#5   A#5    D#5 C#5
E|-----------------------------------|-----------------------------|
B|------------------------------T| OC- |-----------------------------|
G|------------------------------| ESTO-|-----------------------------|
D|--8-888-888-13-8-888-888-13-11--X2-|-88-8~-10X-10X-10X-10X-10X---|
A|--8-888-888-13-8-888-888-13-11-----|-88-8~-10X-10X-10X-10X-10X---|
E|--6-666-666-11-6-666-666-11-9------|-66-6~-8-X-8-X-8-X-8-X-8-X---|

     A#5     D#5   A#5    D#5 C#5
E|---------------------------------|-----------------------------|
B|---------------------------------|-----------------------------|
G|---------------------------------|-----------------------------|
D|--8-888-888-13-8-888-888-13-11---|-88-8~-10X-10X-10X-10X-10X---|
A|--8-888-888-13-8-888-888-13-11---|-88-8~-10X-10X-10X-10X-10X---|
E|--6-666-666-11-6-666-666-11-9----|-66-6~-8-X-8-X-8-X-8-X-8-X---|

     A#5     D#5   A#5    D#5 C#5
E|-----------------------------------|------|
B|------------------------------T| OC- |-16bx-|
G|------------------------------| ESTO-|-15bx-|
D|--8-888-888-13-8-888-888-13-11--X2-|------|
A|--8-888-888-13-8-888-888-13-11-----|------|
E|--6-666-666-11-6-666-666-11-9------|------|

Verso 1 (sin guitarra)
Se que te conozco poco
Pero poco a poco te he de descubrir
Entre tus mañas, tus arañas
El misterio puedo desvestir
   C5
E|-------|
B|-------|
G|-5-5x--|
D|-5-5x--|
A|-3-3x--|
E|-------|

Verso 2 (Sin guitarra)
Se que me conoces como a nadie         C5 se toca 1 vez
Y que a nadie es quien tu quieres para ti
Entre tus dos pieles nunca encuentras fieles
Porque a todos tu les dices que si....
Tu les dices que...

Coro: SE D PITE C S VECES
Aquí se usa este riff
     A#5     D#5   A#5    D#5 C#5
E|-----------------------------------|------|
B|------------------------------T| OC- |------|
G|------------------------------| ESTO-|-12bx-| todo menos
D|--8-888-888-13-8-888-888-13-11--X2-|-11bx-| el final
A|--8-888-888-13-8-888-888-13-11-----|------|
E|--6-666-666-11-6-666-666-11-9------|------|
Tu me das, tu me das lo que yo quiero
Tu me das, tu me das lo que necesito

Verso 3 (Sin guitarra)
Tu cuerpo es facil, lo demas es muy dificil
Y con eso despiertas mi atencion
En poco menos de un instante
Te conviertes en mi amante
Y me das la solución

Verso 4 Se usa este riff:
E|---------------------------|
B|---------------------------|
G|-5x-5x-5x-5x-5x-5x-5x--x2--|
D|-5x-5x-5x-5x-5x-5x-5x------|
A|-3x-3x-3x-3x-3x-3x-3x------|
E|---------------------------|

Me confiesas la manera de llegar a tu hoguera
La que llevas en el corazon
Y con furia hacia el cuello
Nos contamos aquello que revienta tu armazon
Que revienta tu armazon!

Coro: SE D PITE 3 VECES EN ESTE ORDEN
2 VECES RIFF Y 1 EL FINAL
1 VEZ EL RIFF Y 1 EL FINAL
Ahora es asi este riff
     A#5     D#5   A#5    D#5 C#5          “fINAL”
E|-----------------------------------|--------------------------|
B|------------------------------T| OC- |--------------------------|
G|------------------------------| ESTO-|--------------------------|
D|--8-888-888-13-8-888-888-13-11--X2-|-8~-10x-10x-10x-10x-10x---|
A|--8-888-888-13-8-888-888-13-11-----|-8~-10x-10x-10x-10x-10x---|
E|--6-666-666-11-6-666-666-11-9------|-6~-8-x-8-x-8-x-8-x-8-x---|
Tu me das, tu me das lo que yo quiero
Tu me das, tu me das lo que necesito

(G  O)
El solo no lo saque completo pero va
al principio el INTRO X2 y luego sigue
con un punteo el cual no saque y al ultimo
unos acordes así:
E|-------------7~-6~-6~-5~-7~-6~-6~-5~---|
B|-------------7~-7~-6~-5~-7~-7~-6~-5~---|
G|-------------8~-8~-7~-6~-8~-8~-7~-6~---|
D|-888-888-13--9~-8~-8~-7~-9~-8~-8~-7~---|
A|-888-888-13--9~-6~-8~-7~-9~-6~-8~-7~---|
E|-666-666-11--x--x--x--x--x--x--x~-x~---|

Verso 6 (Sin guitarra)
Y te acercas y me encercas
y encuentro tres puertas
y la llave yo la tengo aqui
Y como en un ciclon perdemos la razon
y me arañas y te alejas de mi

Verso 7 (Sin guitarra)
Pero al fin regresas con llanto y unas quejas
y me besas y me dices que si
Y ese si es un si que me das solo a mi
y me arrancas lo que tengo de ti

Verso 8 Este verso lleva este riff
E|--7~-6~-6~-5~-7~-6~-6~-5~---|
B|--7~-7~-6~-5~-7~-7~-6~-5~---|
G|--8~-8~-7~-6~-8~-8~-7~-6~---|
D|--9~-8~-8~-7~-9~-8~-8~-7~---|
A|--9~-6~-8~-7~-9~-6~-8~-7~---|
E|--x--x--x--x--x--x--x~-x~---|
Y relevas tu persona y te conviertes en patrona
y desatas una tempestad
Y entre llantos como santos pecando
ya sin manos encontramos la divinidad
Enfocado hacia el centro que me quema
por dentro invado tu capacidad
Y te vas y yo regreso con un gran peso,
es el peso que tu me das
Solo tu me das


     A#5     D#5   A#5    D#5 C#5
E|-----------------------------------|-----------------------------|
B|------------------------------T| OC- |-----------------------------|
G|------------------------------| ESTO-|-----------------------------|
D|--8-888-888-13-8-888-888-13-11--X2-|-88-8~-10X-10X-10X-10X-10X---|
A|--8-888-888-13-8-888-888-13-11-----|-88-8~-10X-10X-10X-10X-10X---|
E|--6-666-666-11-6-666-666-11-9------|-66-6~-8-X-8-X-8-X-8-X-8-X---|
Coro: SE D PITE 5 VECES EN ESTE ORDEN
2 VECES RIFF Y 1 EL FINAL
1 VEZ EL RIFF Y 1 EL FINAL
2 VECES RIFF Y 1 EL FINAL

Ahora es asi este riff
     A#5     D#5   A#5    D#5 C#5          “fINAL”
E|-----------------------------------|--------------------------|
B|------------------------------T| OC- |--------------------------|
G|------------------------------| ESTO-|--------------------------|
D|--8-888-888-13-8-888-888-13-11--X2-|-8~-10x-10x-10x-10x-10x---|
A|--8-888-888-13-8-888-888-13-11-----|-8~-10x-10x-10x-10x-10x---|
E|--6-666-666-11-6-666-666-11-9------|-6~-8-x-8-x-8-x-8-x-8-x---|
Tu me das, tu me das lo que yo quiero
Tu me das, tu me das lo que necesito


E|---------------------------------------------|
B|---------------------------------------------|
G|---------------------------------------13b~--|
D|-888-888-11--888-888-11-11--888-888-11-12b~--|
A|-888-888-11--888-888-11-11--888-888-11-------|
E|-666-666-9---666-666-9--9---666-666-9--------|
00:00 / 00:00
Otros videos de esta canción
Repetir
Otros videos de esta canción
Composición de La Cuca
2 exhibiciones
    • ½ Tono
    • Am
    • Bbm
    • Bm
    • Cm
    • C#m
    • Dm
    • Ebm
    • Em
    • Fm
    • F#m
    • Gm
    • G#m
  • Agregar a la lista
    00:00 / 00:00
    OK