Cifra Club

El Son De Dolor

La Cuca

Chords: Principal (acoustic and electric guitars)
tone: E
intro:x2         haaaaaa...
e]-6--6--6-6-6-6]-4--4--4-4-4-4]
B]-7--7--7-7-7-7]-6--6--6-6-6-6]
G]-6--6--6-6-6-6]-6--6--6-6-6-6]
D]--------------]--------------]
A]--------------]--------------]
E]--------------]--------------]

Segunda part.
rif:x4
e]-6-6-6-X-11-X-1-X-4-4p6-4--]
B]-7-7-7-X-12-X-2-X-6------6~]
G]-6-6-6-X-11-X-1-X-6--------]
D]---------11----------------]
A]---------------------------]
E]---------------------------]

CUANC  EMPIEZA A CANTAR ES ESTO
Y TERE NA CUANC  DIC:  ¡¡¡¡¡¡D VENTAAR!!!!!!
rif:x1
e]-6-6-6-X-11-X-1-X-6-x-4-]
B]-7-7-7-X-12-X-2-X-6-x-6-]
G]-6-6-6-X-11-X-1-X-6-x-6-]
D]---------11-------------]
A]------------------------]
E]------------------------]

Asi c sigue toda esta parte:

Tú sabes que yo me muero por ti mi vida

yo me muero por ti mi amor

que necesito respiración de boca a boca

porque en tu boca nació mi dolor

Yo quiero que me mates con un beso

y otro beso para resucitar

yo quiero que me des un abrazo

y en tus brazos yo quiero


EN ESTA PARTE ACES A  GUITARRA JUNTO CON A  VOZ
          ¡¡¡¡¡reven  taaaar!!!!!!
e]-6-6-6-X-7-X-1-1-1-X-6-x-4-]
B]-7-7-7-X-7-X-2-2-2-X-6-x-6-]
G]-6-6-6-X-6-X-1-1-1-X-6-x-6-]
D]---------------------------]
A]---------------------------]
E]---------------------------]



intro:
   heeeeeeeeeeee  heeeeeeeeeeee
e]-6--6--6-6-6-6]-4--4--4-4-4-4]
B]-7--7--7-7-7-7]-6--6--6-6-6-6]
G]-6--6--6-6-6-6]-6--6--6-6-6-6]
D]--------------]--------------]
A]--------------]--------------]
E]--------------]--------------]

   Que me muero x ti mi vida yo me muero x ti mi amor
e]-6--6--6-6-6-6]-4--4--4-4-4-4]
B]-7--7--7-7-7-7]-6--6--6-6-6-6]
G]-6--6--6-6-6-6]-6--6--6-6-6-6]
D]--------------]--------------]
A]--------------]--------------]
E]--------------]--------------]

intro:
   heeeeeeeeeeee  heeeeeeeeeeee
e]-6--6--6-6-6-6]-4--4--4-4-4-4]
B]-7--7--7-7-7-7]-6--6--6-6-6-6]
G]-6--6--6-6-6-6]-6--6--6-6-6-6]
D]--------------]--------------]
A]--------------]--------------]
E]--------------]--------------]

   Que me matas y me excitas con tanto dolor:
e]-6--6--6-6-6-6]-4--4--4-4-4-4]
B]-7--7--7-7-7-7]-6--6--6-6-6-6]
G]-6--6--6-6-6-6]-6--6--6-6-6-6]
D]--------------]--------------]
A]--------------]--------------]
E]--------------]--------------]

a qui ac algo parecido a esto
es algo rapido.
e]-----------------------]
B]-----------------------]
G]-----------------------]
D]-4h3h0-----------------]
A]-------4h2h0------2/4~-]
E]------------4h2h0------]

en esta parte se repite todo = :

Tu sabes que me apasiona

tu persona y esa zona

que te quiero morder

tu sabes que me vulves loco

con tus gritos y tus arañazos mujer

Y cuando fumas y quemas

y dibujas patrones sobre mi

y la manera que amas entre llamas

y me consumo pero ya li vivì

¡¡¡¡¡¡que mas da!!!!!!

heeeeeeee
que me muero x ti mi vida yo me muero x ti mi amor

heeeeeeee
que me matas y me excitas con tanto dolor.

El solito es lo mas facil:
los parentesis son harmonicos artificiales
e]-------------------------------------------]
B]-------------------------------------------]
G]-6~-4-3~-4--6-4-3~--6~-4-3~-3p4h3p4h3------]
D]--------------------------------------6-6~-]
A]-------------------------------------------]
E]-------------------------------------------]


e]-------------------------------------------]
B]-------------4(6)2(4)~---------------------]
G]-6~-4-3~-4-6------------6~-4-3-6(8)--------]
D]-------------------------------------------]
A]-------------------------------------------]
E]-------------------------------------------]



e]-13-14-14-13-14-14-13-14-14-13-14-14-13]
B]-13-14-14-13-14-14-13-14-14-13-14-14-13]
G]---------------------------------------]
D]---------------------------------------]
A]---------------------------------------]
E]---------------------------------------]



e]-17b(19)-15p17-15--------17-----------------]
B]------------------17b(15)---17-15-----------]
G]--------------------------------------------]
D]--------------------------------------------]
A]--------------------------------------------]
E]--------------------------------------------]


e]-13-14-14-13-14-14-13-14-14-13-14-14-13]
B]-13-14-14-13-14-14-13-14-14-13-14-14-13]
G]---------------------------------------]
D]---------------------------------------]
A]---------------------------------------]
E]---------------------------------------]


e]--17b(19)-15p17-17b(19)-15p17-17b(19)-15p17]
B]-------------------------------------------]
G]-------------------------------------------]
D]-------------------------------------------]
A]-------------------------------------------]
E]-------------------------------------------]



e]-17b(19)-17b(19)-17b(19)-17b(19)-15h17p15~-]
B]-------------------------------------------]
G]-------------------------------------------]
D]-------------------------------------------]
A]-------------------------------------------]
E]-------------------------------------------]
00:00 / 00:00
Other videos of this song
Repeat
Other videos of this song
Composer not found.
33 views
    • ½ Tone
    • A
    • Bb
    • B
    • C
    • Db
    • D
    • Eb
    • E
    • F
    • F#
    • G
    • Ab
  • Add to list
    00:00 / 00:00
    OK