Cifra Club

Electroshock

La Cuca

Cifrado: Principal (guitarra y guitarra eléctrica)
tono: Em
E|---| ???---                                     |
B|---| ???---                                     |
+-------------------------------------------TAB-+
=============DEL ROCK EN ESPA~OL=================

riff A
E|-----------------------------------|------------------------------------|
B|-----------------------------------|------------------------------------|
G|-4---4-----2----4----2----4----2---|-4---4-----2----4----4----5----6----|
D|-4---4-----2----4----2----4----2---|-4---4-----2----4----2----3----4----|
A|-2---2-----0----2----0----2----0---|-2---2-----0----2-------------------|
E|-----------------------------------|------------------------------------|

riff B                             riff C
E|-----------------| ------------------------------------------
B|-----------------| ---4---4-----2----4----2----4----2--------
G|--4----5----6----| ---4---4-----2----4----2----4----2--------
D|--2----3----4----| ---2---4-----0----2----0----2----0--------
A|-----------------| ------------------------------------------
E|-----------------| ------------------------------------------

riff D                                riff  D2
E|-------------------------| -----------------------
B|-------------------------| -----------------------
G|--4-----4-----4-----4----| ---4----4----4---------
D|--4-----4-----4-----4----| ---4----4----4---------
A|--2-----2-----2-----2----| ---2----2----2---------
E|-------------------------| -----------------------

interlude
E|------------------------------------|-----------------------------------|
B|------------------------------------|-----------------------------------|
G|------------------------------------|-----------------------------------|
D|---------5---4-----5---4----2-------|-------8----7----8---7---5---------|
A|---2--------------------------------|----5------------------------------|
E|------------------------------------|-----------------------------------|

¿ ¿ ¿ ¿ ¿ ¿ ¿ ¿ ¿ ¿ ¿ ¿ ¿ ¿ ¿ ¿ ¿ solo ??????????????????????????

intro
riff A (4)
Sólo por amor es que me tienen aquí
riffA
pero estoy perdido, encerrado sin tí
riff B
Soy un loco tu me tienes más loco te necesito como necesito
riff C (4)
electroshock, electroshock, electroshock electroshock, electroshock
riff A (2)
Se me fue la mente, te deje mi corazón
riff A
sólo por ti perdí la razón
riff B
Soy un loco tu me tienes más loco te necesito como necesito
riff C (4)
electroshock, electroshock, electroshock electroshock, electroshock
riff A (2)
No soporto  más este lugar
riff D
ven por mi, sacame de aquí...
riff D2
Soy un loco tu me tienes más loco te necesito como necesito
riff C (4)
electroshock, electroshock, electroshock electroshock, electroshock
riff A (2)
¿ ¿ ¿ ¿ ¿ ¿ ¿ ¿ ¿ ¿ ¿ ¿ ¿ ¿ ¿ ¿ ¿ solo ??????????????????????????

E|-------------|
B|-------------|
al final de la rola se utiliza el riff B y se cierra con un     ------4------
E|------4------|
B|------2------|
G|-------------|
00:00 / 00:00
Otros videos de esta canción
Repetir
Otros videos de esta canción
Compositor no encontrado.
4 exhibiciones
    • ½ Tono
    • Am
    • Bbm
    • Bm
    • Cm
    • C#m
    • Dm
    • Ebm
    • Em
    • Fm
    • F#m
    • Gm
    • G#m
  • Agregar a la lista
    00:00 / 00:00
    OK