Cifra Club

Hombre de la marcha

La Cuca

Cifrado: Principal (guitarra y guitarra eléctrica)
tono: G#m
           Intro X4
E|----------------------------|
B|----------------------------|
G|----------------------------|
D|------5-4-----------5-4-----|
A|--6/7-----6-2~--6/7-----6~--|
E|----------------------------|

Sueños invadidos
Por un mudo despertar
Tras el uniforme
Siento el roce de tu piel
A  calculadora
Suma días que se van

       Verso X2
E|----------------|
B|----------------|
G|----------------|
D|----------------|
A|--7~--------6~--|
E|----------------|


Fotocopiadora
Veintisiete copias mas
Pase tome asiento
Deme toda su atención
Mientras sobo la cartera
Y alimento el corazón

                         Pre-Coro
E|---------------------------------------------------------|
B|---------------------------------------------------------|
G|---------------------------------------------------------|
D|-----------11~-------------------9~----------------------|
A|--9~--------9~--------7~---------7~--------5~--------3~--|
E|--7~------------------5~-------------------3~--------1~--|

Son tus piernas
Pierna nylon carne blanca
Vena azul
Pierna blanda piel de agua
Son tus piernas derramadas
Son tus piernas puente largo
Toda pierna no eres tú

             Coro X4
E|----------------------------|
B|----------------------------|
G|----------------------------|
D|------5-4-----------5-4-----|
A|--6/7-----6-2~--6/7-----6~--|
E|----------------------------|

Son tus piernas
Son tus piernas

Firmo las promesas
Que me invitan a morir
Y veo el calendario
Arrancandome la piel
A  computadora
Procesando información

       Verso X2
E|----------------|
B|----------------|
G|----------------|
D|----------------|
A|--7~--------6~--|
E|----------------|

Comunicativo solo
Ante el conmutador
Todo por la imagen
De los ciegos que me ven
Mientras sobo la chequera
Y alimento la ilusión

                         Pre-Coro
E|---------------------------------------------------------|
B|---------------------------------------------------------|
G|---------------------------------------------------------|
D|-----------11~-------------------9~----------------------|
A|--9~--------9~--------7~---------7~--------5~--------3~--|
E|--7~------------------5~-------------------3~--------1~--|

Son tus piernas
Pierna nylon carne blanca
Vena azul
Pierna blanda piel de agua
Son tus piernas derramadas
Son tus piernas puente largo
Toda pierna no eres tú

             Coro X4
E|----------------------------|
B|----------------------------|
G|----------------------------|
D|------5-4-----------5-4-----|
A|--6/7-----6-2~--6/7-----6~--|
E|----------------------------|

Son tus piernas
Son tus piernas
E|----------------|
B|----------------|
G|----------------|
D|----------------| X2
A|--7~--------6~--|
E|----------------|

                               Solo

E|------------------------------|-------------------------7h10| A~--|
B|------------------------------|-----------------6---7h8---------|
G|------------------------------|-------------------8-------------|
D|--9-99-8-88-7-77-6-66-6h7-6~--|--9-99-8-88-7-77-----------------|
A|------------------------------|---------------------------------|
E|------------------------------|---------------------------------|
PM     ..   ..   ..   ..              ..   ..   ..

E|------------------------------|---------------------------------|
B|------------------------------|---------------------------------|
G|------------------------------|---------------------------------|
D|--9-99-8-88-7-77-6-66-6h7-6~--|--9-99-8-88-7/-------------------|
A|------------------------------|---------------------------------|
E|------------------------------|---------------------------------|
PM     ..   ..   ..   ..              ..   ..

E|------------------------------|--------------------------------------|
B|-----10-8---------------------|-----17-------15-------14-------12----|
G|--9~------9~-9/8~---8b---8b---|--/16--16--/14--14--/13--13--/11--11--|
D|------------------------------|--------------------------------------|
A|------------------------------|--------------------------------------|
E|------------------------------|--------------------------------------|

E|------------------------------|
B|--17-17-15-15-14-14-12/-------|
G|--16-16-14-14-13-13-11/-------|
D|------------------------------|
A|------------------------------|
E|------------------------------|

Comunicativo solo
Ante el conmutador
Todo por la imagen
De los ciegos que me ven
Mientras sobo la cartera
Y alimento la ilusión

                         Pre-Coro
E|---------------------------------------------------------|
B|---------------------------------------------------------|
G|---------------------------------------------------------|
D|-----------11~-------------------9~----------------------|
A|--9~--------9~--------7~---------7~--------5~--------3~--|
E|--7~------------------5~-------------------3~--------1~--|

Son tus piernas
Pierna nylon carne blanca
Vena azul
Pierna blanda piel de agua
Son tus piernas derramadas
Son tus piernas puente largo
Toda pierna no eres tú

             Coro X4
E|----------------------------|
B|----------------------------|
G|----------------------------|
D|------5-4-----------5-4-----|
A|--6/7-----6-2~--6/7-----6~--|
E|----------------------------|

E|----------------|
B|----------------|
G|----------------|
D|--9~------9/8~--| X2
A|--7~------7/6~--|
E|----------------|

E|------------------------------|---------------------------------|
B|------------------------------|---------------------------------|
G|------------------------------|---------------------------------|
D|--9-99-8-88-7-77-6-66-6h7-6~--|--9-99-8-88-7/-------------------|
A|------------------------------|---------------------------------|
E|------------------------------|---------------------------------|
PM     ..   ..   ..   ..              ..   ..

E|------|
B|------|
G|------|
D|--9~--|
A|--7~--|
E|------|

BMB OLOGIA

h  - Hammer on
P  - Pick off
/  - Slide (Arriba y Abajo)
T  - Tap
B  - Bend
H  - Harmonic [Natural]
A  - Harmonic (Artificial)
~  - Vibrato
PM - Palm mute
00:00 / 00:00
Otros videos de esta canción
Repetir
Otros videos de esta canción
Compositor no encontrado.
7 vistas
    • ½ Tono
    • Am
    • Bbm
    • Bm
    • Cm
    • C#m
    • Dm
    • Ebm
    • Em
    • Fm
    • F#m
    • Gm
    • G#m
  • Agregar a la lista

    0 comentarios

    Ver todos los comentarios

    ¿Lograste tocar?

    0 Tocaron 0 Aún no

    ¡Graba un video tocando Hombre de la marcha y envíanoslo!

    00:00 / 00:00
    OK