Cifra Club

Insecticida al suicida

La Cuca

Cifrado: Principal (guitarra y guitarra eléctrica)
tono: Em
                                                 G5
E ||-----------------------------||       E ||-----------------------||
B ||------8----------------------||       B ||---8---8---8---8---8---||
G ||---------7--5--7--5-----5----||       G ||---7---7---7---7---7---||
D ||---5-----------------7-------||       D ||---5---5---5---5---5---||
A ||-----------------------------||       A ||-----------------------||
E ||-----------------------------||       E ||-----------------------||

Riff 3

             D5                                                C5
e ||-------------------------||--------------------------||----------||
B ||-------------------------||--------------------------||----------||
G ||---------7----------7----||----------7----------7----||-----5----||
D ||------7--7------ 7--7----||-------7--7-------7--7----||-----5----||
A ||---5--5--5----5--5--5----||----5--5--5----5--5--5----||-----3----||
E ||-------------------------||--------------------------||----------||

Riff 4

       C5                                        D5   G5
e ||----------------------------||------------------------||
B ||----------------------------||------------------------||
G ||---5--5--5--5--5--5--5--5---||--5--5--5--5-/-7--------||
D ||---5--5--5--5--5--5--5--5---||--5--5--5--5-/-7----5---||
A ||---3--3--3--3--3--3--3--3---||--3--3--3--3-/-5----5---||
E ||----------------------------||--------------------3---||

      Cuando Riff 4 se une al coro (Ver relación más abajo) no se toca G5,
se deja sonar el acorde para que entre Riff 5 directo a D5. Si no se unen,
se deja sonar otro medio compás.

Riff 5

      D5             G5             C5             E5           G5              A5
e ||---------------------||----||----------------------||----||---------------------||
B ||---------------------||----||----------------------||----||---------------------||
G ||--7--7--7--7--7------||----||---5--5--5--5--5------||----||---------------------||
D ||--7--7--7--7--7---5--||----||---5--5--5--5--5---2--||----||--5--5--5--5--5---7--||
A ||--5--5--5--5--5---5--||----||---3--3--3--3--3---2--||----||--3--3--3--3--3---7--||
E ||------------------3--||----||-------------------0--||----||--3--3--3--3--3---5--||

      Dejo un compás libre para que dejes sonar el acorde (G5 & E5).

Riff 6

e ||----------------------------||-----------------||
B ||----------------------------||-----------------||
G ||---5--7---------------------||---7--5---7--5---||
D ||---------7--5--5--7--7--7---||-----------------||
A ||----------------------------||-----------------||
E ||----------------------------||-----------------||

Riff 7

      C5                                     D5
e ||--------------------------||--------------------------||--------------------------||
B ||--------------------------||--------------------------||--------------------------||
G ||--------------------------||--------------------------||--------------------------||
D ||--5--5--5--5--5--5--5--5--||--5--5--5--5--7--7--7--7--||--7--7--7--7--7--7--7--7--||
A ||--3--3--3--3--3--3--3--3--||--3--3--3--3--5--5--5--5--||--5--5--5--5--5--5--5--5--||
E ||--------------------------||--------------------------||--------------------------||

       C5                             D5             G5
e ||-------------------------||-------------||-------------||
B ||-------------------------||-------------||-------------||
G ||---------------------5---||---5----7----||---7---------||
D ||---5--5--5--5--5--5--5---||---5----7----||---7----5----||
A ||---3--3--3--3--3--3--3---||---3----5----||---5----5----||
E ||-------------------------||-------------||--------3----||

     En algunas partes hay ligeras variaciones, a veces en Riff 2 se toca G5 cuatro veces,
en otras cinco (Escucha la canción y verás).
     Ese mismo riff lo puedes pasar a la primera cuerda (tal como se ve al final de Riff 7)
para que se escuche más duro, lo puse ahí porque es mas fácil tocarlo ya que no hay que cambiar
la posición de la mano.

      Ahora si, la relación de los riffs con la letra.

Intro: Riff 1 x 6
       Riff 2

                Riff 3
Otra vez lo pensaste.
                   Riff 4
Y por fin lo intentaste para fracasar,

solo quieres asustar.
                  Riff 3
Y esta vez te cortaste.
                   Riff 4
¿Y cómo vez? Ni siquiera llegaste a sangrar,

sólo quieres lloriquear.

        Riff 1 x 4
      Riff 2

                 Riff 3
Una vez te disparaste.
                      Riff 4
Y por el susto hasta te olvidaste de cagar,

eso no lo contarás.
                       Riff 3
Y ahora juegas con pastillas.
                   Riff 4
La verdad son aspirinas, deja de mamar,
                     Riff 5
eso no te va a matar.

     La voz aquí entra cuando dejas sonar ya sea G5 la primera vez o E5 la segunda.
Pongo abajo los acordes como referencia, pero si te fijas es el mismo Riff 5.
G5             E5
Si tu quieres, te suicido.
Riff 6
Solo insecticida al suicida.
Riff 6                      Riff 5
Sólo insecticida al suicida.
G5           E5
Yo te ayudo, te suicido.

      Riff 1 x 4

Riff 7 (Pongo donde entran para tener una mejor referencia)
C5                   D5
Es hora de dejar al mundo.
C5
Nadie me comprende, ya no voy a molestar,
D5                   G5
ahora si van a llorar.

                  Riff 3
Tu prometes y presumes.
                  Riff 4
Pero nunca asumes que no te vas a matar,
                       Riff 5
a nadie puedes asustar.

G5                 E5
Si tu quieres, te suicido.
Riff 6
Solo insecticida al suicida.
Riff 6                      Riff 5
Sólo insecticida al suicida.
G5                 E5
Yo te ayudo, te suicido.
G               Am                    G
Deja ya de chingar que te vas a suicidar.
         Am                      G
Busca aquí, rasca allá, te hace falta descremar.

      Durante el solo la guitarra de fondo repite G y A compás y medio cada vez.

        Riff 1 x 4
      Riff 5

G5             E5        Riff 5
Si tu quieres, te suicido.
G5           E5        Riff 5
Yo te ayudo, te suicido.
G5               E5        Riff 5
Y si tu quieres, te suicido.
G5           E5        Riff 5
Yo te ayudo, te suicido.
Riff 6 x 4
Solo insecticida al suicida.
00:00 / 00:00
Otros videos de esta canción
Repetir
Otros videos de esta canción
Composición de A. fors, c. avilez, g. ochoa, i. gonzalez
2 vistas
    • ½ Tono
    • Am
    • Bbm
    • Bm
    • Cm
    • C#m
    • Dm
    • Ebm
    • Em
    • Fm
    • F#m
    • Gm
    • G#m
  • Agregar a la lista

    0 comentarios

    Ver todos los comentarios

    ¿Lograste tocar?

    0 Tocaron 0 Aún no

    ¡Graba un video tocando Insecticida al suicida y envíanoslo!

    00:00 / 00:00
    OK