Cifra Club

Mátame Antes

La Cuca

Cifrado: Principal (guitarra y guitarra eléctrica)
tono: Ab

Saludos!, esta es una rola muy shida del nuevo disco de la CUCA
E|-----------------------------------------------------------------|

|||||||||||||||||||
|| x = palm mute ||
|| b = bend      ||
|| h = hammer-on ||
|| ~  = vibrato  ||
|||||||||||||||||||

INTRO

  x4
E|--------------------------| |
B|--------------------------| |
G|------------------6-------| |
D|------------------6-7-6---| |
A|------4-7-6-4-4~--4-7-6---| |
E|---4-5-------7------5-4---| |

¿Qué es lo que tienes en la boca? es esa palabra...

E|--------------|--------------| |
B|--------------|--------------| |
G|---6----------|---6----------| |
D|---6--7--6-6--|---6--7--6-6--| |
A|---4--7--6-6--|---4--7--6-6--| |
E|------5--4-4--|------5--4-4--| |

...no quiero que se abra tengo tanto miedo de su contenido

E|--------------|--------------| |
B|--------------|--------------| |
G|---6----------|---6----------| |
D|---6--7--6-6--|---6--7--6-6--| |
A|---4--7--6-6--|---4--7--6-6--| |
E|------5--4-4--|------5--4-4--| |

¿Qué es lo que está pasando por esa cabeza?...

E|-----------------------|------------| |
B|-----------------------|------------| |
G|---------------6-------|-6----------| |
D|---------------6--7-6--|-6--7--6-6--| |
A|------4-7-6-4--4--7-6--|-4--7--6-6--| |
E|---4-5-------7----5-4--|----5--4-4--| |

...una promesa, o mi mala suerte que será no verte

E|--------------|-----------|------------| |
B|--------------|-----------|------------| |
G|---6----------|---6-------|------------| |
D|---6--7--6-6--|---6--7--6-|-6-6-6-6-6--| |
A|---4--7--6-6--|---4--7--6-|-6-6-6-6-6--| |
E|------5--4-4--|------5--4-|-4-4-4-4-4--| |

Quiero pedirte un favor...

E|--4-4-4-4-4-4-|-5-5-5-5-5-5-| |
B|--5-5-5-5-5-5-|-5-5-5-5-5-5-| |
G|--6-6-6-6-6-6-|-6-6-6-6-6-6-| |
D|--------------|-------------| |
A|--------------|-------------| |
E|--------------|-------------| |

...ármate con todo tu valor

E|--4-4-4-4-4-4-|---------------| |
B|--5-5-5-5-5-5-|---------------| |
G|--6-6-6-6-6-6-|---------------| |
D|--------------|-6-7-7-7-7-7-7-| |
A|--------------|-6-7-7-7-7-7-7-| |
E|--------------|-4-5-5-5-5-5-5-| |

CORO:

Mátame antes de decirme no...

E|--------------------------| |
B|--------------------------| |
G|--6-----------------------| |
D|--6-6-6-7-----------------| |
A|--4-6-6-7------4-7-6-4----| |
E|----4-4-5--4-5---------7--| |

...Mátame antes de negármelo...

E|--------------------------| |
B|--------------------------| |
G|--6-----------------------| |
D|--6-6-6-7-----------------| |
A|--4-6-6-7------4-7-6-4----| |
E|----4-4-5--4-5---------7--| |

...Mátame antes...

E|--------------------------| |
B|--------------------------| |
G|--6-----------------------| |
D|--6-6-6-7-----------------| |
A|--4-6-6-7------4-7-6-4----| |
E|----4-4-5--4-5---------7--| |

...Mátame antes

E|-------------| |
B|-------------| |
G|-6-9-8-6-----| |
D|-6-9-8-6-6---| |
A|-4-7-6-4-6---| |
E|---------4---| |

No me resigno a la idea del rechazo

E|--------------|--------------| |
B|--------------|--------------| |
G|---6----------|---6----------| |
D|---6--7--6-6--|---6--7--6-6--| |
A|---4--7--6-6--|---4--7--6-6--| |
E|------5--4-4--|------5--4-4--| |

yo quiero echarte el lazo, darte el embarazo y mi vida entera

E|--------------|--------------| |
B|--------------|--------------| |
G|---6----------|---6----------| |
D|---6--7--6-6--|---6--7--6-6--| |
A|---4--7--6-6--|---4--7--6-6--| |
E|------5--4-4--|------5--4-4--| |

¿Qué pasó con aquél hombre? el que yo era...

E|-----------------------|------------| |
B|-----------------------|------------| |
G|---------------6-------|-6----------| |
D|---------------6--7-6--|-6--7--6-6--| |
A|------4-7-6-4--4--7-6--|-4--7--6-6--| |
E|---4-5-------7----5-4--|----5--4-4--| |

...de vida parrandera que con cualquiera y sin saber su nombre

E|--------------|-----------|------------| |
B|--------------|-----------|------------| |
G|---6----------|---6-------|------------| |
D|---6--7--6-6--|---6--7--6-|-6-6-6-6-6--| |
A|---4--7--6-6--|---4--7--6-|-6-6-6-6-6--| |
E|------5--4-4--|------5--4-|-4-4-4-4-4--| |

No lo quiero imaginar...

E|--4-4-4-4-4-4-|-5-5-5-5-5-5-| |
B|--5-5-5-5-5-5-|-5-5-5-5-5-5-| |
G|--6-6-6-6-6-6-|-6-6-6-6-6-6-| |
D|--------------|-------------| |
A|--------------|-------------| |
E|--------------|-------------| |

...no quiero pensar en ese sufrimiento...

E|--4-4-4-4-4-4-|-5-5-5-5-5-5-| |
B|--5-5-5-5-5-5-|-5-5-5-5-5-5-| |
G|--6-6-6-6-6-6-|-6-6-6-6-6-6-| |
D|--------------|-------------| |
A|--------------|-------------| |
E|--------------|-------------| |

...en ese momento...

E|--4-4-4-4-4-4-|-5-5-5-5-5-5-| |
B|--5-5-5-5-5-5-|-5-5-5-5-5-5-| |
G|--6-6-6-6-6-6-|-6-6-6-6-6-6-| |
D|--------------|-------------| |
A|--------------|-------------| |
E|--------------|-------------| |

...no me hagas esa maldad

E|--4-4-4-4-4-4-|---------------| |
B|--5-5-5-5-5-5-|---------------| |
G|--6-6-6-6-6-6-|---------------| |
D|--------------|-6-7-7-7-7-7-7-| |
A|--------------|-6-7-7-7-7-7-7-| |
E|--------------|-4-5-5-5-5-5-5-| |

CORO:

Mátame antes de decirme no...

E|--------------------------| |
B|--------------------------| |
G|--6-----------------------| |
D|--6-6-6-7-----------------| |
A|--4-6-6-7------4-7-6-4----| |
E|----4-4-5--4-5---------7--| |

...Mátame antes de negármelo...

E|--------------------------| |
B|--------------------------| |
G|--6-----------------------| |
D|--6-6-6-7-----------------| |
A|--4-6-6-7------4-7-6-4----| |
E|----4-4-5--4-5---------7--| |

...Mátame antes...

E|--------------------------| |
B|--------------------------| |
G|--6-----------------------| |
D|--6-6-6-7-----------------| |
A|--4-6-6-7------4-7-6-4----| |
E|----4-4-5--4-5---------7--| |

...Mátame antes

E|-------------| |
B|-------------| |
G|-6-9-8-6-----| |
D|-6-9-8-6-6---| |
A|-4-7-6-4-6---| |
E|---------4---| |

G  O:

E|-----------------------------------------------------| |
B|-----------------------------------------------------| |
G|-----------------------------------------------------| |
D|--------------------------------------------16-18b18-| |
A|--------16-19b-18-16~-18-15~---------x16-x19---------| |
E|--16h17----------------------x16-x17-----------------| |

E|---------------------------------------------------| |
B|---------------------------------------------------| |
G|---------------------------------------------------| |
D|--16~-----------------------16-18b18-16-19-18-16~--| |
A|------19-18---------x16-x19------------------------| |
E|------------x16-x17--------------------------------| |

E|--------------------------------------------| |
B|-----18----17-15~-17-14~--------------------| |
G|-------------------------13-13-13-13-13-13--| |
D|--16----16---------------14-14-14-14-14-14--| |
A|--------------------------------------------| |
E|--------------------------------------------| |

E|------------------------------------------------| |
B|------------------------------------------------| |
G|--14-14-14-14-14-14--13-13-13-13-13---16-14-13--| |
D|--14-14-14-14-14-14--14-14-14-14-14---14-14-14--| |
A|------------------------------------------------| |
E|------------------------------------------------| |

E|----------------------------------------------------| |
B|----------------------------------------------------| |
G|-13-13-13-13-13-13--14-14-14-14-14--13-13-13-13-13--| |
D|-14-14-14-14-14-14--14-14-14-14-14--14-14-14-14-14--| |
A|----------------------------------------------------| |
E|----------------------------------------------------| |

E|-------------| |
B|-------------| |
G|--16-14-13---| |
D|--14-14-14---| |
A|-------------| |
E|-------------| |

¿Qué es lo que tienes en las manos? mi corazon latente,
dime ¿qué se siente?

E|--------------|-----------|------------| |
B|--------------|-----------|------------| |
G|---6----------|---6-------|------------| |
D|---6--7--6-6--|---6--7--6-|-6-6-6-6-6--| |
A|---4--7--6-6--|---4--7--6-|-6-6-6-6-6--| |
E|------5--4-4--|------5--4-|-4-4-4-4-4--| |

CORO:

Mátame antes de decirme no...

E|--------------------------| |
B|--------------------------| |
G|--6-----------------------| |
D|--6-6-6-7-----------------| |
A|--4-6-6-7------4-7-6-4----| |
E|----4-4-5--4-5---------7--| |

...Mátame antes de negármelo...

E|--------------------------| |
B|--------------------------| |
G|--6-----------------------| |
D|--6-6-6-7-----------------| |
A|--4-6-6-7------4-7-6-4----| |
E|----4-4-5--4-5---------7--| |

...Mátame antes...

  x5
E|--------------------------| |
B|--------------------------| |
G|--6-----------------------| |
D|--6-6-6-7-----------------| |
A|--4-6-6-7------4-7-6-4----| |
E|----4-4-5--4-5---------7--| |

...Mátame antes

E|-------------| |
B|-------------| |
G|-6-9-8-6-----| |
D|-6-9-8-6-6---| |
A|-4-7-6-4-6---| |
E|---------4---| |

Bueno, eso es todo, la rola esta muy sencilla solo es cuestion
de practicarla.
Transcripcion de AqUiLeS606
00:00 / 00:00
Otros videos de esta canción
Repetir
Otros videos de esta canción
Composición de José Fors
2 vistas
    • ½ Tono
    • A
    • Bb
    • B
    • C
    • Db
    • D
    • Eb
    • E
    • F
    • F#
    • G
    • Ab
  • Agregar a la lista

    0 comentarios

    Ver todos los comentarios

    ¿Lograste tocar?

    0 Tocaron 0 Aún no

    ¡Graba un video tocando Mátame Antes y envíanoslo!

    00:00 / 00:00
    OK