Cifra Club

Metrosexual

La Cuca

Cifrado: Principal (guitarra y guitarra eléctrica)
tono: Dm
intro:

E|------------------------------------------------------------------------|
B|------------------------------------------------------------------------|
G|------------------------------------------------------------------------|
D|------------------------------------------------357| -------------------|
A|-4-4-3h4p3---3-4---------4-4--3h4p3-3-4---------357| x4 --4-4-3h4p3--3-4-|
E|------------------5-4-5------------------5-4-5--357| -------------------|

E|------------------------------------------------------------------------|
B|------------------------------------------------------------------------|
G|------------------------------------------------------------------------|
D|-------------------------------357| ----579 ----3570--3570--579  --3570-|
A|--------4-4--3h4p3--3-4--------357| x4--579 x4--3570--3570--579 x4-3570-|
E|-5-4-5------------------5-4-5--357| ----579 ----3570--3570--579  --3570-|

E|------------------------------------------------------------------------|
B|------------------------------------------------------------------------|
G|------------------------------------------------------------------------|
D|-3570-------------------------------------------357| --579  --3570-3570-|
A|-3570-4-4-3h4p3-3-4--------4-4-3h4p3-3-4--------357| x4-579 x4-3570-3570-|
E|-3570---------------5-4-5----------------5-4-5--357| --579  --3570-3570-|

                                    metrosexual...
E|------------------------------------------------------------------------|
B|------------------------------------------------------------------------|
G|------------------------------------------------------------------------|
D|-579| --3570--3570--5--7--9--579-9979-8-8/12--9979-8-8/12--9979754-9979-|
A|-579| x4-3570--3570--5--7--9--579-9979---------9979---------9979754-9979-|
E|-579| --3570--3570--5--7--9--579-9979---------9979---------9979754-9979-|

                                     se repite el intro

E|------------------------------------------------------------------------|
B|------------------------------------------------------------------------|
G|------------------------------------------------------------------------|
D|-8-8/12--9979-8-8/12-9979754-9979---------------------------------------|
A|---------9979--------9979754-9979--4-4--3h4p3-3-4--------4-4--3h4p3-3-4-|
E|---------9979--------9979754-9979-----------------5-4-5-----------------|

E|------------------------------------------------------------------------|
B|------------------------------------------------------------------------|
G|------------------------------------------------------------------------|
D|--------357| ---579  --3570--3570--579  ---3570-3570--5--7--9-579--9979-|
A|--------357| x4--579 x4-3570--3570--579 x4--3570-3570--5--7--9-579--9979-|
E|-5-4-5--357| ---579  --3570--3570--579  ---3570-3570--5--7--9-579--9979-|

                                              metrosexual...
E|------------------------------------------------------------------------|
B|------------------------------------------------------------------------|
G|------------------------------------------------------------------------|
D|-8-8/12--9979-8-8/12-9979754--9979-8-8/12--9979-8-8/12--9979754---9979--|
A|---------9979--------9979754--9979---------9979---------9979754---9979--|
E|---------9979--------9979754--9979---------9979---------9979754---9979--|

este es el solo:

E|-8h9p8---------8h9p8----------8h9p8-------------------8h9p8-------8h9p8-|
B|-------7-7-8-7-------7-7-8-10-------7-7-8-7-6-7-9-7-5------7-7-8-7------|
G|------------------------------------------------------------------------|
D|------------------------------------------------------------------------|
A|------------------------------------------------------------------------|
E|------------------------------------------------------------------------|

E|-8h9p8-----9---8h9p8----------------------------------------------------|
B|-------7-7---7-------7-7-8-7--6-7-7-7-9-9-9-7-5-------------------------|
G|----------------------------------------------------8-----8---| x9 -----|
D|--------------------------------------------------6---6-6----4| -----|
A|------------------------------------------------------------------------|
E|------------------------------------------------------------------------|

E|------------------------------------------------------------------------|
B|------------------------------------------------------------------------|
G|------------------------------------------------------------------------|
D|-9-99-99-7-77-77-0--9979-8-8/12-9979-8-8/12--9979754--9979--8-8/12-9979-|
A|-9-99-99-7-77-77-0--9979--------9979---------9979754--9979---------9979-|
E|-9-99-99-7-77-77-0--9979--------9979---------9979754--9979---------9979-|

E|------------------------------------------------------------------------|
B|------------------------------------------------------------------------|
G|------------------------------------------------------------------------|
D|-8-8/12--9979754--9979-8-8/12-9979-8-8/12-9979754--9979--8-8/12--9979---|
A|---------9979754--9979--------9979--------9979754--9979----------9979---|
E|---------9979754--9979--------9979--------9979754--9979----------9979---|

E|------------------------------------------------------------------------|
B|------------------------------------------------------------------------|
G|------------------------------------------------------------------------|
D|-8-8/12--9979-8-8/12--9-9-7-9-7-5-4--9-9-7-9-7-5-4--9-9-7-9-7-5-4--9979-|
A|---------9979---------9-9-7-9-7-5-4--9-9-7-9-7-5-4--9-9-7-9-7-5-4--9979-|
E|---------9979---------9-9-7-9-7-5-4--9-9-7-9-7-5-4--9-9-7-9-7-5-4--9979-|
00:00 / 00:00
Otros videos de esta canción
Repetir
Otros videos de esta canción
Compositor no encontrado.
1 vistas
    • ½ Tono
    • Am
    • Bbm
    • Bm
    • Cm
    • C#m
    • Dm
    • Ebm
    • Em
    • Fm
    • F#m
    • Gm
    • G#m
  • Agregar a la lista

    0 comentarios

    Ver todos los comentarios

    ¿Lograste tocar?

    0 Tocaron 0 Aún no

    ¡Graba un video tocando Metrosexual y envíanoslo!

    00:00 / 00:00
    OK