Cifra Club

Reprobado

La Cuca

Cifrado: Principal (guitarra y guitarra eléctrica)
tono: D
INTRO:

e]--------------------------------------------------]
B]--------------------------------------------------]
G]-X-10--8-7-8~--X-10-8-7-8~--X-10-8-7-8-8-7-8-7----]
D]----------------------------------------------8-8~]
A]--------------------------------------------------]
D]--------------------------------------------------]

Staba bien,
Staba mal.
si pasaba o no pasaba me dava igual,
yo la vi, y cai
en esos senos me perdi
fue dolor, no pase
el mudarme entre las garras de esa mujer
prometio que me amaria hasta la muerte
esa no fue mi suerte...

PART:2
e]---------------------------------------------]
B]---------------------------------------------]
G]---------------------------------------------]
D]-8--6-5-6-6-5-6-5-1-1-]-8--6-5-6-6-5-6-5-1-1-]
A]-8--6-5-6-6-5-6-5-1-1-]-8--6-5-6-6-5-6-5-1-1-]
D]-8--6-5-6-6-5-6-5-1-1-]-8--6-5-6-6-5-6-5-1-1-]


¡¡¡HEEEEEEE!!!

Terror al amor,
Tengo pavor al caer enamorado

Terror el peor
Yquedo reprobado en el amor

¡¡¡D PROBAC !!!

INTRO:

e]--------------------------------------------------]
B]--------------------------------------------------]
G]-X-10--8-7-8~--X-10-8-7-8~--X-10-8-7-8-8-7-8-7----]
D]----------------------------------------------8-8~]
A]--------------------------------------------------]
D]--------------------------------------------------]

SEGUID  de aqui alla.
buscando placer pero no buelvoa caer
lo vivi y perdi
a madrasoz aprendi,
fue esa disco
fue tan cruel
todas las caricias de esa mujer
prometio que me amaria hasta la muerte esa no fue mi
¡¡¡suerte!!!

PART:2
e]---------------------------------------------]
B]---------------------------------------------]
G]---------------------------------------------]
D]-8--6-5-6-6-5-6-5-1-1-]-8--6-5-6-6-5-6-5-1-1-]
A]-8--6-5-6-6-5-6-5-1-1-]-8--6-5-6-6-5-6-5-1-1-]
D]-8--6-5-6-6-5-6-5-1-1-]-8--6-5-6-6-5-6-5-1-1-]


¡¡¡HEEEEEEE!!!

Terror al amor,
Tengo pavor al caer enamorado

Terror el peor
Yquedo reprobado en el amor

¡¡¡D PROBAC !!!

G  O:
e]--------------]--------------]-11-9------------------]
B]----11--------]-----11-------]------11-9-------------]
G]-/10----8-7-8~]-/10----8-6---]-----------8-7---------]
D]--------------]------------8~]---------------8-6~----]
A]--------------]--------------]-----------------------]
D]--------------]--------------]-----------------------]

e]--------------]--------------]----------------]
B]----11--------]-----11-------]----------------]
G]-/10----8-7-8~]-/10----8-6---]-----/8~/10~---]
D]--------------]------------8~]-/8~------------]
A]--------------]--------------]----------------]
D]--------------]--------------]----------------]
             ↕
e]-11-9----11(13)-]-(13)-11-9-----]
B]------11--------]-----------11~-]
G]----------------]---------------]
D]----------------]---------------]
A]----------------]---------------]
D]----------------]---------------]

e]-11-9----------14-]--------------------]
B]------11--14(15)--]-(15)14-14-12-14----]
G]------------------]-----------------13~]
D]------------------]--------------------]
A]------------------]--------------------]
D]------------------]--------------------]

e]-/7--7-7-7-7-7-7-]-/9-9-9-9-9-9-9-----]-/15~-/17~-/19~-]
B]-/7--7-7-7-7-7-7-]-/9-9-9-9-9-9-9-----]------------------]
G]-----------------]--------------------]------------------]
D]-----------------]--------------------]------------------]
A]-----------------]--------------------]------------------]
D]-----------------]--------------------]------------------]
00:00 / 00:00
Otros videos de esta canción
Repetir
Otros videos de esta canción
Composición de Jose Fors
3 vistas
    • ½ Tono
    • A
    • Bb
    • B
    • C
    • Db
    • D
    • Eb
    • E
    • F
    • F#
    • G
    • Ab
  • Agregar a la lista

    0 comentarios

    Ver todos los comentarios

    ¿Lograste tocar?

    0 Tocaron 0 Aún no

    ¡Graba un video tocando Reprobado y envíanoslo!

    00:00 / 00:00
    OK