Cifra Club

Responde

La Cuca

Cifrado: Principal (guitarra y guitarra eléctrica)
tono: D
Intro

       Am    F/A   Am                   x6
E|-------------------------------|
B|----11111--0~~--11111--0~~-----|
G|----22222--2~~--22222--4~~-----|
D|----22222--3~~--22222--3~~-----|
A|----00000--0~~--00000--0~~-----|
E|-------------------------------|

    Cuando acabado estoy...


    E5         G5                 E5            F5
E|-------------------------------------------------------|
B|-------------------------------------------------------|
G|-------------------------------------------------------|
D|-2-22-2-5--0-2-0----------2-22-2-2-3--0-2-0------------|
A|-2-22-2-5--------2-0------2-22-2-2-3--------2-0--------|
E|-0-00-0-3------------3-0--0-00-0-0-1------------3-0-2--|

    Seré su enfermedad...

E|-------------| ------------------     ------
                        / 1-3                   / 2                    / 4

     E5   G#5  A5           A5                   A5    G#5   G5
D#||--------------||    |--------------|  |-------------------|  |-------|
A#||--------------||    |--------------|  |-------------------|  |---0~--|
F#||--------------||    |--------------|  |-------------------|  |---4~--|
C#||-2--2-6----7--||    |----77-----7--|  |----7-----6-----5--|  |---3~--|
G#||-2--2-6----7--||    |----77-----7--|  |----7-----6-----5--|  |---0~--|
D#||-0--0-4--0-5--||      |-00-55--00-5--|  |-00-5--00-4--00-3--|  |-0-----|

     Se pasa la vida...


       Am    F/A   Am                   x6
E|-------------------------------|
B|----11111--0~~--11111--0~~-----|
G|----22222--2~~--22222--4~~-----|
D|----22222--3~~--22222--3~~-----|
A|----00000--0~~--00000--0~~-----|
E|-------------------------------|

    Cuando estoy hasta atrás...


    E5         G5                 E5            F5
E|-------------------------------------------------------|
B|-------------------------------------------------------|
G|-------------------------------------------------------|
D|-2-22-2-5--0-2-0----------2-22-2-2-3--0-2-0------------|
A|-2-22-2-5--------2-0------2-22-2-2-3--------2-0--------|
E|-0-00-0-3------------3-0--0-00-0-0-1------------3-0-2--|

    Seré su enfermedad...

E|-------------| ------------------     ------
                        / 1-3                   / 2                    / 4

     E5   G#5  A5           A5                   A5    G#5   G5
D#||--------------||    |--------------|  |-------------------|  |-------|
A#||--------------||    |--------------|  |-------------------|  |---0~--|
F#||--------------||    |--------------|  |-------------------|  |---4~--|
C#||-2--2-6----7--||    |----77-----7--|  |----7-----6-----5--|  |---3~--|
G#||-2--2-6----7--||    |----77-----7--|  |----7-----6-----5--|  |---0~--|
D#||-0--0-4--0-5--||      |-00-55--00-5--|  |-00-5--00-4--00-3--|  |-0-----|

     Se pasa la vida...


Solo

En esta canción como en muchas otras, no es necesario que saquen el solo igual
al que viene en el disco, lo que pueden hacer es crear su propio solo o
improvisar uno.
Para esto pueden ocupar la escala pentatonica de Em o la escala que más les lata


    E5         G5                 E5            F5
E|-------------------------------------------------------|
B|-------------------------------------------------------|
G|-------------------------------------------------------|
D|-2-22-2-5--0-2-0----------2-22-2-2-3--0-2-0------------|
A|-2-22-2-5--------2-0------2-22-2-2-3--------2-0--------|
E|-0-00-0-3------------3-0--0-00-0-0-1------------3-0-2--|

    Seré su enfermedad...

E|-------------| ------------------     ------
                        / 1-3-5-7         / 2-6              / 4-8

     E5   G#5  A5           A5                   A5    G#5   G5             Am
D#||--------------||    |--------------|  |-------------------|  |-----------|
A#||--------------||    |--------------|  |-------------------|  |---0~--1---|
F#||--------------||    |--------------|  |-------------------|  |---4~--2---|
C#||-2--2-6----7--||    |----77-----7--|  |----7-----6-----5--|  |---3~--2---|
G#||-2--2-6----7--||    |----77-----7--|  |----7-----6-----5--|  |---0~--0---|
D#||-0--0-4--0-5--||      |-00-55--00-5--|  |-00-5--00-4--00-3--|  |-0---------|
00:00 / 00:00
Otros videos de esta canción
Repetir
Otros videos de esta canción
Composición de JOSÉ FORS/GALILEO OCHOA
    • ½ Tono
    • A
    • Bb
    • B
    • C
    • Db
    • D
    • Eb
    • E
    • F
    • F#
    • G
    • Ab
  • Agregar a la lista
    00:00 / 00:00
    OK