Cifra Club

Slam

La Cuca

Cifrado: Principal (guitarra y guitarra eléctrica)
tono: C#m

Afinacion
E|----------|
B|----------|
G|----------|
D|----------|
A|----------|
E|----------|

Intro

E|---------------------------------------|
B|---------------------------------------|
G|---------------------------------------|
D|------5-5---------7-7------5-----------|
A|----------6-5---------6-5--3-----------|
E|--5-5---------8-5----------------------|

Parte 2
E|---------------------------------------------------------------|
B|---------------------------------------------------------------|
G|---------------------------------------------------------------|
D|------7-7-------------7-7------------7-7--------5-4-5-5-4------|
A|----------6-5------------6-5-------------6-5----3-2-3-3-2------|
E|--5-5---------8-5---5--------8-5---5---------5-----------------|


Coro
                PM-----------
E|----------------------------------------------------------------|
B|----------------------------------------------------------------|
G|--7-------------------------------------------------------------|
D|--5-7-//9//////2------------------------------------------------|
A|----5-//7//////0-0-0-0-0-0-0-0----------------------------------|
E|----------------------------------------------------------------|

Parte 4
  PM--      PM--    PM--
E|----------------------------------------------------------------|
B|----------------------------------------------------------------|
G|----------------------------------------------------------------|
D|----------------------------------------------------------------|
A|--2-----5-2-2-----5-2-----5//7----------------------------------|
E|--0-0-0-3-0-0-0-0-3-0-0-0-3//5----------------------------------|

Despues del solo
 PM----    PM----    PM----
E|----------------------------------------------------|
B|----------------------------------------------------|
G|----------------------------------------------------|
D|----------------------------------------------------|
A|--9-8-7-6---8-7-6-5---8-7-5-7-----------------------|
E|--7-6-5-4---6-5-4-3---6-5-3-5-----------------------|
00:00 / 00:00
Otros videos de esta canción
Repetir
Otros videos de esta canción
Compositor no encontrado.
5 exhibiciones
    • ½ Tono
    • Am
    • Bbm
    • Bm
    • Cm
    • C#m
    • Dm
    • Ebm
    • Em
    • Fm
    • F#m
    • Gm
    • G#m
  • Agregar a la lista
    00:00 / 00:00
    OK