Cifra Club

Todo con Exceso

La Cuca

Cifrado: Principal (guitarra y guitarra eléctrica)
tono: Gm
E|----------------------------------------------------------------|
B|----------------------------------------------------------------|
G|----------X--5--X--7--8---------------------5--7--8-------------|
D|--X--7--X--5--X--7--8----X--7--X--X--5--7--8--------------------|
A|--X--7--X--3--X--5--6----X--7--X--X--3--5--6--------------------|
E|--X--5-------------------------X--5--X--X-----------------------|

Se toca el Fig. durante el verso

Yo no quiero tu mano sudada
yo no quiero nada nada que no seas tu
Yo no quiero irme mas despacio
en un instante es un abismo para mi esperar

Coro: toca primero el Riff y despues el Fig
Riff.
E|----------------------------------|
B|----------------------------------|
G|----------------------------------|
D|--3-----(3)-----(3)/13~-----------|
A|--3-----(3)-----(3)/13~-----------|
E|--1-----(1)-----(1)/11~-----------|

Contigo no quiero nada
no quiero nada, nada con medida
Contigo yo quiero todo
todo con exceso, nada con medida
nada con medida

Se vuelve a repetir

Yo no quiero vivir para siempre
el para siempre es un istante
es un momento que estoy dentro de ti
Eres un vicio
mi droga tu persona
Soy un adicto, un convicto,
un esclavo encadenado a ti

Coro:

"Y como dijeron las jericallas"
No controles tus vestidos
No controles mis sentidos
No controles tus perversiones
No contrloes mis sensaciones
No controles, no controles
00:00 / 00:00
Otros videos de esta canción
Repetir
Otros videos de esta canción
Composición de Jose Fors
3 vistas
    • ½ Tono
    • Am
    • Bbm
    • Bm
    • Cm
    • C#m
    • Dm
    • Ebm
    • Em
    • Fm
    • F#m
    • Gm
    • G#m
  • Agregar a la lista

    0 comentarios

    Ver todos los comentarios

    ¿Lograste tocar?

    0 Tocaron 0 Aún no

    ¡Graba un video tocando Todo con Exceso y envíanoslo!

    00:00 / 00:00
    OK