Cifra Club

Buscando en la basura

La Fuga

Cifrado: Principal (guitarra y guitarra eléctrica)
Selo Cifra Club: esta cifra foi revisada para atender aos critérios oficiais da nossa Equipe de Qualidade.
tono: D
E|------------------0-2-3-2-0------0--------0-2-3-2-0---------------|
B|----3-2-3-----3--------------3----------3-------------3-3---2h3-2-|
G|------------------------------------------------------------------|
D|------------------------------------------------------------------|
A|------------------------------------------------------------------|
E|------------------------------------------------------------------|





E|------------------0-2-3-2-0------0---------5s7-5--3-2-0-2---------|
B|----3-2-3-----3--------------3------------------------------------|
G|------------------------------------------------------------------|
D|------------------------------------------------------------------|
A|------------------------------------------------------------------|
E|------------------------------------------------------------------|






E|-5s7-5-----12-10-9----10-9-10-9-10-9-10-9--12-10-12-10-12-10-12-10|
B|------------------------------------------------------------------|
G|------------------------------------------------------------------|
D|------------------------------------------------------------------|
A|------------------------------------------------------------------|
E|------------------------------------------------------------------|
Otros videos de esta canción
    887 exhibiciones
      • ½ Tono
      • A
      • Bb
      • B
      • C
      • Db
      • D
      • Eb
      • E
      • F
      • F#
      • G
      • Ab
    • Agregar a la lista

    Afinação da cifra

    Afinador online

      Ops (: Contenido disponible solo en portugués.
      OK