Cifra Club

Animal

La Ley

Cifrado: Principal (guitarra y guitarra eléctrica)
tono: C
E|---0-0-0-0-0-0-0-0-0-0-0-0-0-0-0-0-|
B|---0-0-0-0-0-0-0-0-0-0-0-0-0-0-0-0-|
G|---1-1-1-1-2-2-2-2-4-4-4-4-2-2-2-2-|
D|---2-2-2-2-2-2-2-2-2-2-2-2-2-2-2-2-|
A|---0-0-0-0-0-0-0-0-0-0-0-0-0-0-0-0-|
E|---0-0-0-0-0-0-0-0-0-0-0-0-0-0-0-0-|

(Riff 2)

E|---0-0-0-0-0-0-0-3-5-|
B|---0-0-0-0-0-0-0-3-5-|
G|---1-1-1-1-1-1-1-4-6-|
D|---2-2-2-2-2-2-2-5-7-|
A|---2-2-2-2-2-2-2-5-7-|
E|---0-0-0-0-0-0-0-3-5-|

Intro:

(Riff 1) x 2

(Riff 1)
El ojo de tu amor se va cerrar
Y no se si acaso vuelva a despertar
(Riff 1)
Yo sobrexistiré con el viejo sol
Bajo el manto de alguna autocompasión
(Riff 1)
Para creer
Que los llantos que ahogan este amanecer
         (Riff 2)
Me harán brotar...
(Riff 1)
El mar de norte a sur se va a secar
Y no se si pueda ahora navegar
(Riff 1)
Para volver
y los llantos que ahogan este atardecer
         (Riff 2)
me harán viajar...


Am             G
Solamente solo existo en este altar
C              G
Solamente solo persisto en este amar
Am              G
BESAME Y BESAME HASTA SENTIRTE
C   G
  ANIMAL


(Riff 1)
El hijo de una “star” se va acostar
Y no se si acso quiera levantarse
(Riff 1)
Para crecer
Y los llanto que ahogan su anochecer
         (Riff 2)
Lo harán gritar


Am             G
Solamente solo existo en este altar
C              G
Solamente solo persisto en este amar
Am              G             C    G
BESAME Y BESAME HASTA SENTIRTE   ANIMAL
Am              G           C      G
BESAME Y BESAME HASTA MORIR G  O ANIMAL
Am              G            C     G
BESAME Y BESAME HASTA SENTIRTE   ANIMAL
Am              G           C      G
BESAME Y BESAME HASTA MORIR G  O ANIMAL


(Riff 1) x 2

Notas usadas:

      Am      G      C
E|-----5------0------0-------------------------|
B|-----5------3------8-------------------------|
G|-----5------4------9-------------------------|
D|-----7------5------10------------------------|
A|-----7------5------10------------------------|
E|-----5------0------0-------------------------|
00:00 / 00:00
Otros videos de esta canción
Repetir
Otros videos de esta canción
Composición de La Ley
68 vistas
    • ½ Tono
    • A
    • Bb
    • B
    • C
    • Db
    • D
    • Eb
    • E
    • F
    • F#
    • G
    • Ab
  • Agregar a la lista

    0 comentarios

    Ver todos los comentarios

    ¿Lograste tocar?

    0 Tocaron 0 Aún no

    ¡Graba un video tocando Animal y envíanoslo!

    00:00 / 00:00
    OK