Cifra Club

Gavilan o paloma

La Lupita

Chords: Principal (acoustic and electric guitars)
tone: Bb
E|--------------|
B|-----6--------|
G|-5/7---5-7----| x 3
D|--------------|
A|--------------|
E|--------------|

E|-------------5-|
B|-----6-------5-|
G|-5/7---5-7-6-7-| x 1
D|---------------|
A|---------------|
E|---------------|


A#
No dejabas de mirar estabas sola

                          F
completamente bella y sensual

Cm                                  F
algo me arrastro hacia ti como una ola.

E|--------------------------------|
B|----------------------------6~| -
G|--------------------------------|
D|--------------------------------|
A|--------------------------------|
E|--------------------------------|

  Cm           D#         F7
y fui y te dije hola, que tal...

                              (Adorno)
E|----------|
B|-10-------|
G|----10-7--|


A#
Esa noche entre tus brazos cai en la trampa

  A#maj7                     Cm
cazaste al aprendiz de seductor

                              F
y me diste de comer sobre tu palma

E|--------------------------------|
B|----------------------------6~| -
G|--------------------------------|
D|--------------------------------|
A|--------------------------------|
E|--------------------------------|

    Cm          D#          F
haciéndome tu humilde servidor.
                             (Adorno)
E|----------|
B|-10-------|
G|----10-7--|




(Adorno previo)

E|-5-5-5-5--|
B|-6-6-6-6--|
G|-5-5-5-5--|
D|----------|
A|----------|
E|----------|


*************************| CORO |***************************
                                                           *
                                                           *
                                                           *
                                                           *
 A#                                                        *
Amiga,                                                     *
                   A#maj7                                  *
hay que ver cómo es el amor                                *
                        Fm    A#7                          *
que envuelve a quien lo toma                               *
             D#                                            *
gavilán o paloma.                                          *
      Cm                                                   *
Pobre tonto                                                *
               Dm                                          *
ingenuo charlatán,                                         *
          Cm                                               *
que fui paloma                                             *
        D#           F7                                    *
por querer ser gavilán.                                    *
                                                           *
                     (Adorno solo se ahce en este coro)    *
E|----------| *
B|-10-------| *
G|----10-7--| *
                                                           *
************************************************************


Riff guitarra electrica con un ligero distor

E|--------------------6----|
B|-----6------------6---6--|
G|-5/7---5-7----5/7--------|
D|-------------------------|
A|-------------------------|
E|-------------------------|




A#
Fui bajando lentamente tu vestido
                        F
y tú no me dejaste ni hablar,
Cm                          F
solamente suspirabas te nececito,

E|--------------------------------|
B|----------------------------6~| -
G|--------------------------------|
D|--------------------------------|
A|--------------------------------|
E|--------------------------------|

   Cm         D#      F
abrázame más fuerte, más...
                         (Adorno)
E|----------|
B|-10-------|
G|----10-7--|

A#
al mirarte me sentí desengañado
                      Cm
sólo me dio frío tu calor
                                   F
lentamente te solté de entre mis brazos

E|--------------------------------|
B|----------------------------6~| -
G|--------------------------------|
D|--------------------------------|
A|--------------------------------|
E|--------------------------------|

  Cm           D#           F
y dije estate quieta por favor.
                              (Adorno)
E|----------|
B|-10-------|
G|----10-7--|


(Adorno previo)

E|-5-5-5-5--|
B|-6-6-6-6--|
G|-5-5-5-5--|
D|----------|
A|----------|
E|----------|

E|-------------| Coro x2 | -------------------


A#
No dejabas de mirar [amiga]  x 4





******************| Acordes usados |*********************

   A#    F     Cm  A#maj7  F7   D#    Dm

E|-6-----1-----3-----1-----1-----6-----1----|
B|-6-----1-----4-----3-----1-----8-----3----|
G|-7-----2-----5-----2-----2-----8-----2----|
D|-8-----3-----5-----3-----1-----8-----0----|
A|-8-----3-----3-----1-----3-----6-----0----|
E|-6-----1-----3-----1-----1-----6-----0----|

*********************************************************




Esta rola esta dedicada a una mujer que me dejo por un mariachi
jajaja espero algun dia se arrepienta y k yo ya este muy lejos
y sienta lo k yo siento !!!
00:00 / 00:00
Other videos of this song
Repeat
Other videos of this song
Composer not found.
38 views
    • ½ Tone
    • A
    • Bb
    • B
    • C
    • Db
    • D
    • Eb
    • E
    • F
    • F#
    • G
    • Ab
  • Add to list
    00:00 / 00:00
    OK