Cifra Club

Me Cae

La Lupita

Cifrado: Principal (guitarra y guitarra eléctrica)
tono: D
INTRO:

E|-------------------------------------------------|
B|--------9--------5-------7-------3-----2---------|
G|-------------------------------------------------|
D|---7h9----9---6----6---7---7---4---4---2---------|
A|-------------------------------------------------|
E|-------------------------------------------------|

2-int
E|-------------------------------------------------|
B|-------------------------------------------------|
G|---------6---------------------------------------|
D|-------7---------7--6--------7-7-7-7-7-----------|
A|----7------7h9----------7----5-5-5-5-5-----------|
E|-------------------------------------------------|

E|-------------------------------------------------|
B|---------------------------7--7--7--8--8--7------|
G|-------6-------------------7--7--7--7--7--7------|
D|-----7-----------7--6------7--7--7--7--7--7------|
A|---7-------7h9----------7--5--5--5--5--5--5------|
E|-------------------------------------------------|

E|-------------------------------------------------|
B|-------------------------------------------------|
G|-------------------------------------------------|
D|------4---7---4----4-----------------------------|
A|---5-------------5----5--4----5-5-5-5------------|
E|------------------------------3-3-3-3------------|

E|---------------------------------------------5----|
B|---------------------------------------------7----|
G|-----6---9---6----6--------------------------7----|
D|---7------------7---7--6----7-7-7-7-7-7------6----|
A|----------------------------5-5-5-5-5-5------5----|
E|---------------------------------------------5----..|
Composición de Poncho Toledo / Xavier Velasco
    • ½ Tono
    • A
    • Bb
    • B
    • C
    • Db
    • D
    • Eb
    • E
    • F
    • F#
    • G
    • Ab
  • Agregar a la lista

    0 comentarios

    Ver todos los comentarios

    ¿Lograste tocar?

    0 Tocaron 0 Aún no

    ¡Graba un video tocando Me Cae y envíanoslo!

    00:00 / 00:00
    Outros vídeos desta música
    Repetir Calidad Automático
    Outros vídeos desta música
    00:00 / 00:00
    Automático
    OK