Cifra Club

Aprenda

Jueves

La Oreja De Van Gogh

Tablatura: Principal (guitarra)
tono: F
Intro:

   F
E|-----------------|-----------------|-----------------|-----------------|
B|-----------------|-----------------|-1---------------|---------1--3--1-|
G|---------0-------|---------0-------|---------0-------|---------0-------|
D|-----3-------3---|-----3-------3---|-----3-------3---|-----3-----------|
A|---3---3---3---3-|---3---3---3---3-|---3---3---3---3-|---3---3---------|
E|-1---------------|-1---------------|-1---------------|-1---------------|

   C                                   Dm
E|-----------------|--------------0--|-1-------0-------|---------1--0----|
B|-1---------------|-----------1-----|-----3-------3---|-3---3---------3-|
G|---------0-------|--------0--------|---2---2---2---2-|---2---2---------|
D|-----2-------2---|-----2-----------|-0---------------|-----------------|
A|---3---3---3---3-|---3---3---------|-----------------|-----------------|
E|-3---------------|-3---------------|-----------------|-----------------|

   Bb                                  C
E|-----------------|------------0--1-|-0----------0--3-|-8---------------|
B|-3-------1-------|-------3-3-------|---------1-------|-----------------|
G|-----3-------3---|-3---3-----------|-----0-----------|-----------------|
D|---3---3---3---3-|---3-------------|---2---2---------|-----------------|
A|-1---------------|-----------------|-3---------------|-----------------|
E|-----------------|-----------------|-----------------|-----------------|
                                                      ...Si fuera más guapa

   F                                   Bb
E|-1---------------|-----------------|-1---------------|-----------------|
B|-1---------------|-----------------|-3---------------|-----------------|
G|-2---------------|-----------------|-3---------------|-----------------|
D|-3---------------|-----------------|-3---------------|-----------------|
A|-3---------------|-----------------|-1---------------|-----------------|
E|-1---------------|-----------------|-----------------|-----------------|
 y un poco más lista, si fuera especial, si fuera de revista, tendría el

   C                 Bb                C7      F
E|-0---------------|-1---------------|-0------1--------|-----------------|
B|-1---------------|-3---------------|-1------1--------|-----------------|
G|-0---------------|-3---------------|-3------2--------|-----------------|
D|-2---------------|-3---------------|-2------3--------|-----------------|
A|-3---------------|-1---------------|-3------3--------|-----------------|
E|-----------------|-----------------|--------1--------|-----------------|
 valor de cruzar el vagón y preguntarte quién eres.     Te sientas enfrente

   F                              Am   Bb                             Dm
E|-1-------1-------|-1-------1---0---|-1-------1-------|-1-------1---1---|
B|-1-------1-------|-1-------1---1---|-3-------3-------|-3-------3---3---|
G|-2-------2-------|-2-------2---2---|-3-------3-------|-3-------3---2---|
D|-3-------3-------|-3-------3---2---|-3-------3-------|-3-------3---0---|
A|-3-------3-------|-3-------3---0---|-1-------1-------|-1-------1-------|
E|-1-------1-------|-1-------1-------|-----------------|-----------------|
 y ni te imaginas que llevo por ti mi falda mas bonita,          y al verte

   C                 Bb                C      F
E|-0-------0-------|-1-------1-------|-0-----1---------|-----------------|
B|-1-------1-------|-3-------3-------|-1-----1---------|-----------------|
G|-0-------0-------|-3-------3-------|-0-----2---------|-----------------|
D|-2-------2-------|-3-------3-------|-2-----3---------|-----------------|
A|-3-------3-------|-1-------1-------|-3-----3---------|-----------------|
E|-----------------|-----------------|-----------------|-----------------|
 lanzar un bostezo al cristal se inundan mis pupilas.       ...De pronto me

   Dm
E|-1-------0-------|---------1--3--1-|-0---------------|---------0--1--0-|
B|-----3-------3---|-3---3-----------|---------3-------|-1---------------|
G|---2---2---2---2-|---2---2---------|-----2-------2---|-----2-----------|
D|-0---------------|-----------------|---2---2---2---2-|---2---2---------|
A|-----------------|-----------------|-0---------------|-----------------|
E|-----------------|-----------------|-----------------|-----------------|
 miras, te miro y suspiras, yo cierro los ojos tu apartas la vista, apenas

   Bb                                  C
E|-----------------|------------0--1-|-0----------0--3-|-8---------------|
B|-3-------1-------|-------3-3-------|---------1-------|-----------------|
G|-----3-------3---|-3---3-----------|-----0-----------|-----------------|
D|---3---3---3---3-|---3-------------|---2---2---------|-----------------|
A|-1---------------|-----------------|-3---------------|-----------------|
E|-----------------|-----------------|-----------------|-----------------|
 respiro me hago pequeñita y me pongo a temblar.

(igual que la seguynda estrofa)

                F
Y asi pasan los dias de lunes a viernes,
         Am   Bb
como las golondrinas del poema de Bequer,
             Dm   C
de estacion a estacion,
               Bb               C7   F
de frente tu y yo va y viene el silencio.

             Dm
De pronto me miras, te miro y suspiras,
              Am
yo cierro los ojos tu apartas la vista,
          Bb
apenas respiro, me hago pequeñita
                 C
y me pongo a temblar.

(rasgueado)

           F
Y entonces ocurre, despiertan mis labios,
              Bb
pronuncian tu nombre tartamudeando,
            Gm
supongo que piensas: qué chica más tonta y
            C
me quiero morir.

                  F
Pero el tiempo se para y te acercas diciendo:
           Bb
yo no te conozco y ya te echaba de menos.
       Gm
Cada mañana rechazo el directo
             C
y elijo este tren.

                G
Y ya estamos llegando, mi vida ha cambiado
           C
un día especial este 11 de marzo,
            Am
me tomas la mano, llegamos a un túnel,
             D
que apaga la luz.

   G                                   C
E|-7-------7-------|---------7-------|-0-------0-------|---------0-------|
B|-----8-------8---|-----8-------8---|-----1-------1---|-----1-------1---|
G|---7---7---7---7-|---7---7---7---7-|---0---0---0---0-|---0---0---0---0-|
D|-----------------|-----------------|-----------------|-----------------|
A|-----------------|-----------------|-----------------|-----------------|
E|-----------------|-----------------|-----------------|-----------------|
Te encuentro la cara gracias a mis manos,
me vuelvo valiente y te beso en los labios,

   Am                                  D                 D7
E|-----------------|-----------------|-2---------------|-2---------------|
B|-1-------1-------|---------1-------|-3---------------|-1---------------|
G|-----2-------2---|-----2-------2---|-2---------------|-2---------------|
D|---2---2---2---2-|---2---2---2---2-|-0---------------|-0---------------|
A|-----------------|-----------------|-----------------|-----------------|
E|-----------------|-----------------|-----------------|-----------------|
dices que me quieres y yo te regalo el último soplo de mi corazón.

(rasgueado)

 G  D  Em  C  D  G 
Colaboración y revision:
  • Ailin Vidal
2.981 reproducciones
    • ½ Tono
    • A
    • Bb
    • B
    • C
    • Db
    • D
    • Eb
    • E
    • F
    • F#
    • G
    • Ab
  • Adicionar à lista

    0 comentarios

    Ver todos os comentários

    ¿Conseguiste tocar?

    0 Tocaram 0 Ainda não

    Grave um vídeo tocando Jueves e nos envie!

    00:00 / 00:00
    outros vídeos desta música
    repetir qualidade Automático
    Outros vídeos desta música
    00:00 / 00:00
    Automático
    OK