Cifra Club

Calienta el odio

La Polla Records

Cifrado: Principal (guitarra y guitarra eléctrica)
tono: Gm
INTRO: Bb

E|-------------------------------------------------------|
B|-------8-6-6-6| >8-6-6>8-6------------------------8-6-6--|
G|-----7-------------------7--------------------7--------|
D|-8-8-----------------------8-8-8------8-8-8-8----------|
A|---------------------------------8| >10------------------|
E|-------------------------------------------------------|

E|----10-------10-------10-10-10-10-10-10----------------|
B|-11----11-11----11-11-11-11-11-11-11-11----------------|
G|-------------------------------------------------------|
D|-------------------------------------------------------|
A|-------------------------------------------------------|
E|-------------------------------------------------------|


Bb
Mundo de buitres ciegos, mundo cartera.
                Eb     F      Bb
Mundo cobarde, mundo antinatural.
                 Eb    F              Bb
Si todo va a acabar, gratis lo van a ver.
                 Eb      F         Bb
Si todo sigue igual, también seguiré.

Eb F Bb, Eb F Bb, Eb F Bb, Eb F Bb

Bb
Con las antenas puestas la vida entera,
                Eb       F     Bb
hay mucho malnacido que controlar.
               Eb                 Bb
Esto no puede ser, que paranoia...

Eb           D   Bb
Odio a mi alrededor.
Eb           D   Bb
Odio a mi alrededor.
Eb        D    Bb
Odio dentro de mi.

Eb           D   Bb
Odio a mi alrededor.
Eb           D   Bb
Odio a mi alrededor.
Eb        D    Bb
Odio dentro de mi.



G  O:

E|---------------------------------------------------------|
B|---------8-6-6-6| >8-6-6>8-6------------------------8-6-6--|
G|-------7-------------------7--------------------7--------|
D|-8-8-8-----------------------8-8-8------8-8-8-8----------|
A|-----------------------------------8| >10------------------|
E|---------------------------------------------------------|

E|----10-------10-------10-10-10-10-10-10------------------|
B|-11----11-11----11-11-11-11-11-11-11-11------------------|
G|---------------------------------------------------------|
D|---------------------------------------------------------|
A|---------------------------------------------------------|
E|---------------------------------------------------------|


   Bb
Quiero sacar de mi esta locura ardiente,
                   Eb     F     Bb
quiero apagar el fuego de mi razón,
               Eb
pero no puede ser, vista la situación de...

Eb           D   Bb
Odio a mi alrededor.
Eb           D   Bb
Odio a mi alrededor.
Eb        D    Bb
Odio dentro de mi.

Eb           D   Bb
Odio a mi alrededor.
Eb           D   Bb
Odio a mi alrededor.
Eb        D    Bb
Odio dentro de mi. Calor Calor Calor Calor Calor Calor...
            Eb         D    Bb
Calienta el odio, dentro de mí.
            Eb         D    Bb
Calienta el odio, dentro de mí.


E|------------------------|
B|----------------8-6-6---|
G|--------------7---------|
D|------8-8-8-8-----------|
A|-8>10-------------------|
E|------------------------|

Bb          Eb         D    Bb
Calienta el odio, dentro de mí.
            Eb
Calienta el odio.
Composición de La Polla Records
1 vistas
    • ½ Tono
    • Am
    • Bbm
    • Bm
    • Cm
    • C#m
    • Dm
    • Ebm
    • Em
    • Fm
    • F#m
    • Gm
    • G#m
  • Agregar a la lista

    0 comentarios

    Ver todos los comentarios

    ¿Lograste tocar?

    0 Tocaron 0 Aún no

    ¡Graba un video tocando Calienta el odio y envíanoslo!

    00:00 / 00:00
    Otros videos de esta canción
    Repetir Calidad Automático
    Otros videos de esta canción
    00:00 / 00:00
    Automático
    OK