Cifra Club

Carne para la picadora

La Polla Records

Cifrado: Principal (guitarra y guitarra eléctrica)
tono: F
Bb  -A 

E|-------------------------------------------5-6-5----------|
B|---5--6-5-6-5-6-5-6--[---6-5-6-5-6-5-6--]--------8-6-5-6-5|
G|---------------------| 7-----------------|-----------------| x2
D|---------------------[-------x2---------]-----------------|
A|----------------------------------------------------------|
E|----------------------------------------------------------|

D -F -Bb -A  x 4

E|-------------------------------------------5-6-5----------|
B|---5--6-5-6-5-6-5-6--[---6-5-6-5-6-5-6--]--------8-6-5-6-5|
G|---------------------| 7-----------------|-----------------|
D|---------------------[-------x2---------]-----------------|
A|----------------------------------------------------------|
E|----------------------------------------------------------|

E|------------------------------------------------8---------|
B|---6-5-6-5-6-5-6--[---6-5-6-5-6-5-6--]-8-8b(10)---8b(10)-8|
G|------------------| 7-----------------|--------------------|
D|------------------[-------x2---------]--------------------|
A|----------------------------------------------------------|
E|----------------------------------------------------------|

Re(tapado) Fa-Mi-Sib-La x2

Re(tapado)

E|------------------------------------6----------6-------6------|
B|------------------------------------6----6-----6-6-----6------|
G|-----------------------------------------8b(10)--8b(10)-------|
D|---------------------------5/7--------------------------------|
A|-5------5-5/8-5--5/8-8-X-8-----8------------------------------|
E|----5-8-------------------------------------------------------|

E|-55------5------5-------------------------------6---------6------6|
B|-55-5----5-5----5-------------------------------6---6-----6-6----6|
G|----7b(9)--7b(9)------------------------------------8b(10)--8b(10)|
D|------------------------------------------5/7---------------------|
A|----------------------5-----5-8-5--5/888------8-------------------|
E|------------------------5-8---------------------------------------|

E|-55------5------5------|
B|-55-5----5-5----5------|
G|----7b(9)--7b(9)-------|
D|-----------------------|
A|-----------------------|
E|-----------------------|

D -F -Bb 
Composición de Evaristo
15 vistas
    • ½ Tono
    • A
    • Bb
    • B
    • C
    • Db
    • D
    • Eb
    • E
    • F
    • F#
    • G
    • Ab
  • Agregar a la lista

    0 comentarios

    Ver todos los comentarios

    ¿Lograste tocar?

    0 Tocaron 0 Aún no

    ¡Graba un video tocando Carne para la picadora y envíanoslo!

    00:00 / 00:00
    Otros videos de esta canción
    Repetir Calidad Automático
    Otros videos de esta canción
    00:00 / 00:00
    Automático
    OK