Cifra Club

Come mierda

La Polla Records

Cifrado: Principal (guitarra y guitarra eléctrica)
tono: D

E|--------------------|
B|--------------------|
G|---7--9--12--7------|
D|---7--9--12--5------|
A|---5--7--10--5------|
E|--------------------|

Básicamente son sólo estos acordes.
Luego depende de la forma en que sean tocados, pero estos son los que más se usan.

Yo el solo lo toco así:

E|-----------------------------------------------------------------------------------------------------|
B|--------------------------------------------10----10----10-------------------------------------------|
G|--11-11-11-11-9---7---7--11-------7----9-11----11----11----11----7---7-11-------7-7*----------------|
D|----------------7---9-------9-7-9-------------------------------7---9------9-7-9------9-7------------|
A|------------------------------------------------------------------------------------------9-7--------|
E|----------------------------------------------------------------------------------------------9-7---|
00:00 / 00:00
Otros videos de esta canción
Repetir
Otros videos de esta canción
Compositor no encontrado.
22 vistas
    • ½ Tono
    • A
    • Bb
    • B
    • C
    • Db
    • D
    • Eb
    • E
    • F
    • F#
    • G
    • Ab
  • Agregar a la lista

    0 comentarios

    Ver todos los comentarios

    ¿Lograste tocar?

    0 Tocaron 0 Aún no

    ¡Graba un video tocando Come mierda y envíanoslo!

    00:00 / 00:00
    OK