Cifra Club

Ellos Dicen Mierda

La Polla Records

Tab de bajo: Principal
[Intro 1]

G|----------------|----------------|----------------|----------------|
D|----------------|----------------|----------------|----------------|
A|----------------|----------------|----------------|---------2222222|
E|----------------|----------------|----------------|----------------|
  0 & 1 & 2 & 3 &  0 & 1 & 2 & 3 &  0 & 1 & 2 & 3 &  0 & 1 & 2 & 3 & 4 

G|----------------|----------------|
D|----------------|----------------|
A|2--------------2|2--------------2|
E|----------------|----------------|
  0 & 1 & 2 & 3 &  0 & 1 & 2 & 3 & 4

[Intro 2]

G|----------------|----------------|----------------|----------------|
D|----------------|----------------|----------------|----------------|
A|2---------------|----------------|---------------2|2--------------2|
E|---------------2|2--------------0|0---------------|----------------|
  0 & 1 & 2 & 3 &  0 & 1 & 2 & 3 &  0 & 1 & 2 & 3 &  0 & 1 & 2 & 3 & 4

G|----------------|
D|----------------|
A|2--------------2|
E|----------------|
  0 & 1 & 2 & 3 & 4

[Intro 3]

G|----------------|----------------|----------------|----------------|
D|----------------|----------------|----------------|----------------|
A|2---------------|----------------|---------------2|2--------------2|
E|---------------2|2--------------0|0---------------|--------2222222-|
  0 & 1 & 2 & 3 &  0 & 1 & 2 & 3 &  0 & 1 & 2 & 3 &  0 & 1 & 2 & 3 & 4

[Intro - Verso]

G|----------------|----------------|----------------|----------------|
D|----------------|----------------|----------------|----------------|
A|2---------------|----------------|---------------2|2--------------2|
E|---------------2|2--------------0|0---------------|--------2222222-|
  0 & 1 & 2 & 3 &  0 & 1 & 2 & 3 &  0 & 1 & 2 & 3 &  0 & 1 & 2 & 3 & 4

G|----------------|----------------|----------------|----------------|
D|----------------|----------------|----------------|----------------|
A|2---------------|----------------|---------------2|2-222222--------|
E|---------------2|2--------------0|0---------------|--------02202---|
  0 & 1 & 2 & 3 &  0 & 1 & 2 & 3 &  0 & 1 & 2 & 3 &  0 & 1 & 2 & 3 & 4

[Verso]

G|----------------|----------------|----------------|----------------|
D|----------------|----------------|----------------|----------------|
A|222222222222222-|----------------|----------------|2222222---------|
E|---------------2|2222222222222220|0000000000000000|--------2222222-|
  0 & 1 & 2 & 3 &  0 & 1 & 2 & 3 &  0 & 1 & 2 & 3 &  0 & 1 & 2 & 3 & 4

G|----------------|----------------|----------------|----------------|
D|----------------|----------------|----------------|----------------|
A|222222222222222-|----------------|----------------|2222222---------|
E|---------------2|2222222222222220|0000000000000000|--------02-02---|
  0 & 1 & 2 & 3 &  0 & 1 & 2 & 3 &  0 & 1 & 2 & 3 &  0 & 1 & 2 & 3 & 4

[Solo 1]

G|----------------|----64------64--|--4422----4422--|----------------|
D|----42------42--|4-44--64-444--64|2-----42-2----42|--------24-24---|
A|2-22--42-222--42|----------------|----------------|2222222---------|
E|----------------|----------------|----------------|----------------|
  0 & 1 & 2 & 3 &  0 & 1 & 2 & 3 &  0 & 1 & 2 & 3 &  0 & 1 & 2 & 3 & 4

G|----------------|----64------64--|--4422----4422--|----------------|
D|----42------42--|4-44--64-444--64|2-----42-2----42|--------4444444/|
A|2-22--42-222--42|----------------|----------------|2222222---------|
E|----------------|----------------|----------------|----------------|
  0 & 1 & 2 & 3 &  0 & 1 & 2 & 3 &  0 & 1 & 2 & 3 &  0 & 1 & 2 & 3 & 4

[Verso 2]

G|----------------|----------------|----------------|----------------|
D|----------------|----------------|----------------|----------------|
A|222222222222222-|----------------|----------------|2222222---------|
E|---------------2|2222222222222220|0000000000000000|--------2222222-|
  0 & 1 & 2 & 3 &  0 & 1 & 2 & 3 &  0 & 1 & 2 & 3 &  0 & 1 & 2 & 3 & 4

G|----------------|----------------|----------------|----------------|
D|----------------|----------------|----------------|----------------|
A|222222222222222-|----------------|----------------|222222229999999/|
E|---------------2|2222222222222220|0-775520-0775520|----------------|
  0 & 1 & 2 & 3 &  0 & 1 & 2 & 3 &  0 & 1 & 2 & 3 &  0 & 1 & 2 & 3 & 4

[Solo 2]

G|----------------|----------------|----------------|----------------|
D|----------------|--------44444444|4222224444222222|1-1-111---------|
A|222222222222222-|----------------|----------------|----------------|
E|---------------2|22222222--------|----------------|--------0220222-|
  0 & 1 & 2 & 3 &  0 & 1 & 2 & 3 &  0 & 1 & 2 & 3 &  0 & 1 & 2 & 3 & 4

G|----------------|----------------|----------------|----------------|
D|----------------|--------44444444|4222224444222222|----------------|
A|222222222222222-|----------------|----------------|22222222--------|
E|---------------2|22222222--------|----------------|--------2222202-|
  0 & 1 & 2 & 3 &  0 & 1 & 2 & 3 &  0 & 1 & 2 & 3 &  0 & 1 & 2 & 3 & 4

[Verso 3]

G|----------------|----------------|----------------|----------------|
D|----------------|----------------|----------------|----------------|
A|222222222222222-|----------------|----------------|2222222---------|
E|---------------2|2222222222222220|0000000000000000|--------2222222-|
  0 & 1 & 2 & 3 &  0 & 1 & 2 & 3 &  0 & 1 & 2 & 3 &  0 & 1 & 2 & 3 & 4

G|----------------|----------------|----------------|----------------|
D|----------------|----------------|----------------|----------------|
A|222222222222222-|----------------|----------------|2222222--------2|
E|---------------2|2222222222222220|0-775520-0775520|--------02202---|
  0 & 1 & 2 & 3 &  0 & 1 & 2 & 3 &  0 & 1 & 2 & 3 &  0 & 1 & 2 & 3 & 4

G|----------------|----------------|
D|----------------|----------------|
A|2---222222222222|2---222222222222|
E|----------------|----------------|
  0 & 1 & 2 & 3 &  0 & 1 & 2 & 3 & 4

G|----------------|----------------|----------------|----------------|
D|----------------|----------------|----------------|----------------|
A|2---22222222222-|----------------|----------------|2222222---------|
E|---------------2|2---222222222220|0-00000000000000|--------02-02---|
  0 & 1 & 2 & 3 &  0 & 1 & 2 & 3 &  0 & 1 & 2 & 3 &  0 & 1 & 2 & 3 & 4

[Verso 4]

G|----------------|----------------|----------------|----------------|
D|----------------|----44444444444-|----------------|----------------|
A|222222222222222-|----------------|----------------|2222222---------|
E|---------------2|2222-----------0|0-775520-0775520|--------2222222-|
  0 & 1 & 2 & 3 &  0 & 1 & 2 & 3 &  0 & 1 & 2 & 3 &  0 & 1 & 2 & 3 & 4

G|----------------|----------------|----------------|----------------|
D|----------------|----------------|----------------|----------------|
A|222222222222222-|----------------|----------------|2222222--------2|
E|---------------2|2222222222222220|0-775520-0775520|--------02-02---|
  0 & 1 & 2 & 3 &  0 & 1 & 2 & 3 &  0 & 1 & 2 & 3 &  0 & 1 & 2 & 3 & 4

G|----------------|----------------|----------------|----------------|
D|----------------|----------------|----------------|----------------|
A|2--------------2|2--------------2|2---------------|2--2------------|
E|----------------|----------------|----------------|----------------|
  0 & 1 & 2 & 3 &  0 & 1 & 2 & 3 &  0 & 1 & 2 & 3 &  0 & 1 & 2 & 3 & 4
Composición de Diego Coronado
Colaboración y revisión:
  • DIEGO coronado
46 vistas

0 comentarios

Ver todos los comentarios

¿Lograste tocar?

0 Tocaron 0 Aún no

¡Graba un video tocando Ellos Dicen Mierda y envíanoslo!

00:00 / 00:00
Outros vídeos desta música
Repetir Calidad Automático
Outros vídeos desta música
00:00 / 00:00
Automático
OK