Cifra Club

Estrella del rock

La Polla Records

Cifrado: Principal (guitarra y guitarra eléctrica)
tono: F#m
INTRO:

   A  C# B  E   A  C# D  E
E|--------------------------|
B|--------------------------|
G|----6--4---------6--7--9--| (X2)
D|-7--6--4--2---7--6--7--9--|
A|-7--4--2--2---7--4--5--7--|
E|-5--------0---5-----------|

  A         C#        B   E
Soy una estrella del Rock
   A      C#   D   E
Estoy con la CBS
 A      C#         B   E
Todo en dia en la radio
         A      C#     D   E
Los discjokeys son de casa

  D
Cuando tenga 40 aos
    A
Me voy a hacer la cirugia
D
Y vender muchos discos
    E
Con esta carita mia.

 A     C#           B   E
Si me marco una chapuza
        A      C#       D   E
De la que ni Dios se aclara
   A    C#     B   E
Es una genialidad
           A     C#       D    E
Pues pa' que compre los criticos?

D
Y si hasta un dia me asqueo
       A
Y con todo me mosqueo
D
Se me ocurre suicidarme
       E
Me convertire en un hroe

Ah! Ah!

   A E E E A
E|------------|
B|------------|
G|-2-------2--| (X4)
D|-2-2-2-2-2--|
A|-0-2-2-2-0--|
E|---0-0-0----|

   A  C# B  E   A  C# D  E
E|--------------------------|
B|--------------------------|
G|----6--4---------6--7--9--| (X2)
D|-7--6--4--2---7--6--7--9--|
A|-7--4--2--2---7--4--5--7--|
E|-5--------0---5-----------|



G  O:

E|-15-15-15---------------------------------------------------------|
B|----------------13-----13-----------------------------------------|
G|-------------14^---14^----14^-------------------------------------|
D|----------12------------------12-12-12-12-12-12/14-14-12/14-14-14-|
A|------------------------------------------------------------------|
E|------------------------------------------------------------------|

   A E A C C  A E A C C  A E A C C  A E A
E|-----------------------------------------|
B|-----------------------------------------|
G|-2---2-5-5--2---2-5-5--2---2-5-5--2---2--|
D|-2-2-2-5-5--2-2-2-5-5--2-2-2-5-5--2-2-2--|
A|-0-2-0-3-3--0-2-0-3-3--0-2-0-3-3--0-2-0--|
E|---0----------0----------0----------0----|
00:00 / 00:00
Otros videos de esta canción
Repetir
Otros videos de esta canción
Compositor no encontrado.
9 vistas
    • ½ Tono
    • Am
    • Bbm
    • Bm
    • Cm
    • C#m
    • Dm
    • Ebm
    • Em
    • Fm
    • F#m
    • Gm
    • G#m
  • Agregar a la lista

    0 comentarios

    Ver todos los comentarios

    ¿Lograste tocar?

    0 Tocaron 0 Aún no

    ¡Graba un video tocando Estrella del rock y envíanoslo!

    00:00 / 00:00
    OK