Cifra Club

Lucky Man

La Polla Records

Cifrado: Principal (guitarra y guitarra eléctrica)
tono: E
 lavando el dinero de la mafia apoyando al fascismo mundial...
E|-----------3-3-3------------3-3-3------------3-3-3------------3-3-3--3-3-3-|
B|-----------3-3-3------------3-3-3------------3-3-3------------3-3-3--3-3-3-|
G|-----------0-0-0---------0--0-0-0---------0--0-0-0---------0--0-0-0--0-0-0-|
D|-----------0-0-0---------0--0-0-0---------0--0-0-0---------0--0-0-0--0-0-0-|
A|-----------2-2-2--0-0-0--2--2-2-2--0-0-0--2--2-2-2--0-0-0--2--2-2-2--2-2-2-|
E|-0-1-2--3--3-3-3--0-1-2--3--3-3-3--0-1-2--3--3-3-3--0-1-2--3--3-3-3--3-3-3-|

  en la cocina la foto del papa...
E|-------------------------------------------------------------|
B|-3--3--3-3-3-----7--7-7-7-7-7--7--7-7-7-7-7--3--3--3-3-3-3-3-|
G|-4--4--4-4-4-----7--7-7-7-7-7--7--7-7-7-7-7--4--4--4-4-4-4-4-|
D|-5--5--5-5-5-----7--7-7-7-7-7--7--7-7-7-7-7--5--5--5-5-5-5-5-|
A|-5--5--5-5-5--5--5--5-5-5-5-5--5--5-5-5-5-5--5--5--5-5-5-5-5-|
E|-3--3--3-3-3---------------------------------3--3--3-3-3-3-3-|

E|---------------------------------------------------3-|
B|-3--3--3-3-3-----7--7-7-7-7-7--7--7-7-7-7-7--3--3--3-|
G|-4--4--4-4-4-----7--7-7-7-7-7--7--7-7-7-7-7--4--4--4-|
D|-5--5--5-5-5-----7--7-7-7-7-7--7--7-7-7-7-7--5--5--5-|
A|-5--5--5-5-5--5--5--5-5-5-5-5--5--5-5-5-5-5--5--5--5-|
E|-3--3--3-3-3---------------------------------3--3--3-|

  lucky man lucky man lucky man...
E|-------------------------------------------------------------|
B|-3--3--3-3-3-----7--7-7-7-7-7--7--7-7-7-7-7--3--3--3-3-3-3-3-|
G|-4--4--4-4-4-----7--7-7-7-7-7--7--7-7-7-7-7--4--4--4-4-4-4-4-|
D|-5--5--5-5-5-----7--7-7-7-7-7--7--7-7-7-7-7--5--5--5-5-5-5-5-|
A|-5--5--5-5-5--5--5--5-5-5-5-5--5--5-5-5-5-5--5--5--5-5-5-5-5-|
E|-3--3--3-3-3---------------------------------3--3--3-3-3-3-3-|

E|---------------------------------------------------3-|
B|-3--3--3-3-3-----7--7-7-7-7-7--7--7-7-7-7-7--3--3--3-|
G|-4--4--4-4-4-----7--7-7-7-7-7--7--7-7-7-7-7--4--4--4-|
D|-5--5--5-5-5-----7--7-7-7-7-7--7--7-7-7-7-7--5--5--5-|
A|-5--5--5-5-5--5--5--5-5-5-5-5--5--5-5-5-5-5--5--5--5-|
E|-3--3--3-3-3---------------------------------3--3--3-|

   a 40 pavos la reliquia
E|-------------------------------------|
B|-------------------------------------|
G|---------------------------7bf~~~~~--|
D|-6-5-6-5-6-5--------8---8------------|
A|--------------8-7-6---6--------------|
E|-------------------------------------|

  milagro garantisado
E|-------------------------------------|
B|-------------------------------------|
G|---------------------------7bf~~~~~--|
D|-8-7-8-7-8-----4-5-5---5-------------|
A|-----------5-7-------7---------------|
E|-------------------------------------|

  si esto es vivir enserio??
E|-------------------------------------|
B|-------------------------------------|
G|---------------------------7bf~~~~~--|
D|-6-5-6-5-6-5--------8---8------------|
A|--------------8-7-6---6--------------|
E|-------------------------------------|

  preferimos hacer el indio
E|------------11-10-9----------|
B|--------------------11-9-----|
G|-------------------------8---|
D|-8-7-8-7-8-----------------6-|
A|-----------------------------|
E|-----------------------------|

   pa pa pa pa pa pa pa pa pa pa paa...
   lucky man lucky man lucky man...
E|-------------------------------------------------------------|
B|-3--3--3-3-3-----7--7-7-7-7-7--7--7-7-7-7-7--3--3--3-3-3-3-3-|
G|-4--4--4-4-4-----7--7-7-7-7-7--7--7-7-7-7-7--4--4--4-4-4-4-4-|
D|-5--5--5-5-5-----7--7-7-7-7-7--7--7-7-7-7-7--5--5--5-5-5-5-5-|
A|-5--5--5-5-5--5--5--5-5-5-5-5--5--5-5-5-5-5--5--5--5-5-5-5-5-|
E|-3--3--3-3-3---------------------------------3--3--3-3-3-3-3-|

E|---------------------------------------------------3-|
B|-3--3--3-3-3-----7--7-7-7-7-7--7--7-7-7-7-7--3--3--3-|
G|-4--4--4-4-4-----7--7-7-7-7-7--7--7-7-7-7-7--4--4--4-|
D|-5--5--5-5-5-----7--7-7-7-7-7--7--7-7-7-7-7--5--5--5-|
A|-5--5--5-5-5--5--5--5-5-5-5-5--5--5-5-5-5-5--5--5--5-|
E|-3--3--3-3-3---------------------------------3--3--3-|

E|-------------------------------------------------------------|
B|-3--3--3-3-3-----7--7-7-7-7-7--7--7-7-7-7-7--3--3--3-3-3-3-3-|
G|-4--4--4-4-4-----7--7-7-7-7-7--7--7-7-7-7-7--4--4--4-4-4-4-4-|
D|-5--5--5-5-5-----7--7-7-7-7-7--7--7-7-7-7-7--5--5--5-5-5-5-5-|
A|-5--5--5-5-5--5--5--5-5-5-5-5--5--5-5-5-5-5--5--5--5-5-5-5-5-|
E|-3--3--3-3-3---------------------------------3--3--3-3-3-3-3-|

E|---------------------------------------------------3-|
B|-3--3--3-3-3-----7--7-7-7-7-7--7--7-7-7-7-7--3--3--3-|
G|-4--4--4-4-4-----7--7-7-7-7-7--7--7-7-7-7-7--4--4--4-|
D|-5--5--5-5-5-----7--7-7-7-7-7--7--7-7-7-7-7--5--5--5-|
A|-5--5--5-5-5--5--5--5-5-5-5-5--5--5-5-5-5-5--5--5--5-|
E|-3--3--3-3-3---------------------------------3--3--3-|

E|---------------------|
B|-------8-------------|
G|-7/9\7---7/9\7-----4-|
D|----------------5--5-|
A|-------------------5-|
E|-------------------3-|
00:00 / 00:00
Otros videos de esta canción
Repetir
Otros videos de esta canción
Compositor no encontrado.
Colaboración y revisión:
  • Lizandra
347 vistas
    • ½ Tono
    • A
    • Bb
    • B
    • C
    • Db
    • D
    • Eb
    • E
    • F
    • F#
    • G
    • Ab
  • Agregar a la lista

    0 comentarios

    Ver todos los comentarios

    ¿Lograste tocar?

    0 Tocaron 0 Aún no

    ¡Graba un video tocando Lucky Man y envíanoslo!

    00:00 / 00:00
    OK