Cifra Club

No quiero ser un rolling stone

La Polla Records

Cifrado: Principal (guitarra y guitarra eléctrica)
tono: Bm
intro: D 
      D   F#5  A     G              D 
      bas ta   ya , ya no lo aguanto mas
        D   F#5  A     G           D 
        por  fa  vor en donde hay que firmar
                     B 
          me he aburrido en mi palacio
                     D 
          me he aburrido en mi mansion
                B                     E5        A 
   me he aburrido por la radio y por la television
               B                     D 
    voy a hacer una escapada y no volvere jamas
      E5                            A 
   ni siquiera por el pacto que tengo con satanas
            D    F#5  A     G             D 
           bas   ta   ya ya no lo aguanto mas
         D   F#5  A       G           D 
         por fa   vor en donde hay que firmar
               B                    D 
     no sere un viejo loco con aspecto juvenil
                      B 
          aguantando la postura por que
               D             B 
         no quiero ser un rolling stone
               D             B 
         no quiero ser un rolling stone

E|-------------------------------------------------------------------------|
B|-------------------------------------------------------------------------|
G|------------------------------7-8-10-8-7---7-8-10-12-10---7-8-10-8-10-12-|
D|---5-8-7-----5----5-8-7-----5------------5--------------5----------------|
A|-5-------8-5----5-------8-5----------------------------------------------|
E|-------------------------------------------------------------------------|
          D    F#5  A    G              D 
          bas   ta  ya ya no lo aguanto mas
          D   F#5  A       G            D 
         por  fa   vor en donde hay que firmar
              B                      D 
     managers y productores fabricaros otro gil
              B                 E5            A 
    pelearos por la pasta pero yo me abro de aqui
              B                   D 
  ya no quiero ser leyenda ni el puto amo del rock
         E5                          A 
  ni siquiera por el pacto que tengo con el cabron
         E5                           A 
  ni siquiera por el pacto que tengo con el cabron
           D   F#5  A       G           D 
           bas  ta  ya  ya no lo aguanto mas
        D   F#5  A        G             D 
        por fa   vor en donde hay que firmar

E|----------------------------------------------------|
B|----------------------------------------------------|
G|----------------------------------------------------|
D|----5-8-7-----5----5-8-7-----5----------------------|
A|--5-------8-5----5-------8-5------------------------|
E|----------------------------------------------------|
                D             B 
          no quiero ser un rolling stone
                D             B 
          no quiero tanta satisfaccion
00:00 / 00:00
Otros videos de esta canción
Repetir
Otros videos de esta canción
Composición de La polla records
10 vistas
    • ½ Tono
    • Am
    • Bbm
    • Bm
    • Cm
    • C#m
    • Dm
    • Ebm
    • Em
    • Fm
    • F#m
    • Gm
    • G#m
  • Agregar a la lista

    0 comentarios

    Ver todos los comentarios

    ¿Lograste tocar?

    0 Tocaron 0 Aún no

    ¡Graba un video tocando No quiero ser un rolling stone y envíanoslo!

    00:00 / 00:00
    OK