Cifra Club

Txus

La Polla Records

Cifrado: Versão 3 (guitarra y guitarra eléctrica)
tono: C
E|----------------|
B|----------------|
G|----------------|
D|----------------|
A|------------0-2-|
E|----------3-----|


C C F G x2


C                       C            F     G
Txus es un alcohólico, Txus está nervioso
   C                C                  F               G
Tiene alucinaciones de su ducha sale alcohol hirviendo
  C                  C
Esto no puede ser, esto no hay quien lo aguante
F                    G
tiene que llevarse a alguien por delante
C                  C
Txus está furioso, Txus está violento
F                      G
alguien va a pagar sus nervios
A                    A
Se monta una bronca, Txus está en el suelo
A                   G
Ahora está contento muerto


                           hp                                hhp  p
E|----------------|--------010-----|----------------|----------------|
|1-----1-----1-1-|1---1-3-----3-1-|------------1-0-|--------0131----|
G|----------------|----------------| 2---2-2---------|2-----------2-0-|
D|----------------|----------------|----------------|----------------|
A|----------------|----------------|----------------|----------------|
E|----------------|----------------|----------------|----------------|

                           hp                                hhp  p
E|----------------|--------010-----|----------------|----------------|
|1---1---1-----1-|----1-3-----3-1-|----------1---0-|--------0131----|
G|----------------|----------------| 2---2---2-------|2-----------2-0-|
D|----------------|----------------|----------------|----------------|
A|----------------|----------------|----------------|----------------|
E|----------------|----------------|----------------|----------------|

E|----------------|
B|----------------|
|2---------------|
D|----------------|
A|----------------|
E|----------------|

Aquí viene un palmeo que comienza con la última nota del solo

PAM PAM PAMPAM x4


C C F G x2


C               C
En su tumba hay latas de cerveza
F                    G
Txus no bebas tanto, no pierdas la cabeza
C                       C
Txus no bebas tanto, no pierdas la cabeza
   F                     G                C
no pierdas la cabeza, no pierdas la cabeza
Compositor no encontrado.
2 vistas
    • ½ Tono
    • A
    • Bb
    • B
    • C
    • Db
    • D
    • Eb
    • E
    • F
    • F#
    • G
    • Ab
  • Agregar a la lista

    0 comentarios

    Ver todos los comentarios
    00:00 / 00:00
    Otros videos de esta canción
    Repetir Calidad Automático
    Otros videos de esta canción
    00:00 / 00:00
    Automático
    OK