Cifra Club

El Sol No Regresa

La Quinta Estación

Cifrado: Principal (guitarra y guitarra eléctrica)
tono: E
[intro]

             E       A A A A A    B    A A   E 
E|---4-4-4-2-0---4-4-4-------------2---0-----0----|
B|---5-5-5-3-0---5-5-5-2-2-2-2-2-0-2/4-0-2-2-0----|
G|-------------1-------2-2-2-2-2-0-2/4-0-2-2-0| 1--|
D|-------------2-------2-2-2-2-2-0-2/4-0-2-2-0-2--|
A|-------------2-------------------2-----------2--|
E|---------------------------------2--------------|
 
                   A                B                        E                      
E|-11/12-12-12-11--9--9--9--9-12-12-12-11-11-11-11/12-11--9--9-7-|
B|-13/14-14-14-12-10-10-10-10-14-14-14-12-12-12-12/14-12-10-10-9-|
G|---------------------------------------------------------------|
D|---------------------------------------------------------------|
A|---------------------------------------------------------------|
E|---------------------------------------------------------------|

            E                A                    
Hace dias perdí en alguna cantina 
                B           A        E 
La mitad de mi alma, mas el 15 de propina 
                                     A 
No es que sea el alcohol la mejor medicina 
               B            A           E 
Pero ayuda a olvidar cuando no ves la salida 

                 A                 B 
Hoy te intento contar que todo va bien 
                  E  C#m                  A 
Aunque no te lo creas, aunque a estas alturas 
              B                 E 
Un ultimo esfuerzo no valga la pena 
                   A          B             C#m   
Hoy los buenos recuerdos se caen por las escaleras 
                  A                  B 
Y tras varios tequilas las nubes se van pero el 
          E   A   E 
Sol no regresa 
 
                                       A 
Sueños de habitacion y un hotel de carretera 
                  B           A            E 
Y unas gotas de lluvia que guardan esta maleta 
                                       A 
Ruedan por el colchon de mi cama ya desierta 
               B           A            E 
Es la mejor solución para un dolor de cabeza 
              
                 A                 B 
Hoy te intento contar que todo va bien 
                  E  C#m                  A 
Aunque no te lo creas, aunque a estas alturas 
              B                 E 
Un ultimo esfuerzo no valga la pena 
                   A          B             C#m   
Hoy los buenos recuerdos se caen por las escaleras 
                  A                  B 
Y tras varios tequilas las nubes se van pero el 
          C#m A B C#m A B   
Sol no regresa 
              
                 A                 B 
Hoy te intento contar que todo va bien 
                  E  C#m                  A 
Aunque no te lo creas, aunque a estas alturas 
              B                 E 
Un ultimo esfuerzo no valga la pena 
                   A          B             C#m   
Hoy los buenos recuerdos se caen por las escaleras 
                  A                  B 
Y tras varios tequilas las nubes se van pero el 
         C#m          
Sol no regresa. 
                  A                  B 
Y tras varios tequilas las nubes se van pero el 
 
Sol no regresa 
                    A                B                        E                      
E|--12-12-12-11--9--9--9--9-12-12-12-11-11-11-11/12-11--9--9-7-|
B|--14-14-14-12-10-10-10-10-14-14-14-12-12-12-12/14-12-10-10-9-|
G|-------------------------------------------------------------|
D|-------------------------------------------------------------|
A|-------------------------------------------------------------|
E|-------------------------------------------------------------|
 
C#m                        A                  B 
          y tras varios tequilas las nubes se van pero el 
           E   A   E 
Sol no regresa
00:00 / 00:00
Otros videos de esta canción
Repetir
Otros videos de esta canción
Compositor no encontrado.
Colaboración y revisión:
  • Maiken Jaraba
23.307 exhibiciones
    • ½ Tono
    • A
    • Bb
    • B
    • C
    • Db
    • D
    • Eb
    • E
    • F
    • F#
    • G
    • Ab
  • Agregar a la lista
    00:00 / 00:00
    OK