Cifra Club

Alta Magia

La Vela Puerca

Cifrado: Principal (guitarra y guitarra eléctrica)
Já pensou em usar uma coleção de roupas do Cifra Club? Responda as perguntas abaixo e nos ajude nessa missão! →
tono: G
Por Joaquin Flores

En esta cancion hay 2 guitarras. 


                                                                                       INTRO
Con distorción
1era guitarra
                                                                                               con vibrato
----------------------------------------------------------------------------5----------------------------------------------------
----------------------------------------------------------------------------------------------------------------------------------
---7--7---------7--7---------7---7---------------------------------------------------------------------------------------------
---7--7---------7--7---------7---7---7---7----7--7-----7--7-----------------------------------------------------------------
---5--5---------5--5---------5---5---7---7----7--7-----7--7-----------------------------------------------------------------
----------------------------------------5---5----5--5-----5--5-----------------------------------------------------------------

En la intro solo está la 1era guitarra.


                                                                                    PARTE 2  X 2

1era guitarra
con Dist

                                                                                                                                                           con vibrato
-------------------------------------------------------------------------------------------------------------------------5--------
----------------------------------------------------------------------------------------------------------------------------------
-7----------12-------------7----------------12---------------7-------------12-------------------------------------------------
-7----------12-------------7----------------12---------------7-------------12----------7-7-----7---7-----7---7-------------
-5----------10-------------5----------------10---------------5-------------10----------7-7-----7--7------7---7-------------
-------------------------------------------------------------------------------------------5-5------5--5-----5---5--------------



2da Guitarra
Muy poca Dist.

----------------------------------------------------------------------------------------------------------------------------------
----------------------------------------------------------------------------------------------------------------------------------
----------------------------------------------------------------------------------------------------------------------------------
-----------------------5--4--------4------------------------5---4------4--------------------------5-4------4-----------------
--5--5----5--7--5------------7-------5---5----5--7--5------------7------5---5----5--7---5----------7---------------------
----------------------------------------------------------------------------------------------------------------------------------


En esta parte las 2 guitarras van al mismo tiempo. Esta parte se repite una vez.




                                                                            CORO


El coro empieza cuando sebastián empieza a cantar en el segundo 24

2da Guitarra
Sonido Limipo y metalico
Con púa hacia arriba

--10--10--10---10---5---5----5----5-----------------------------------------------------------------------------------------
--10--10--10---10---5---5----5----5-----------------------------------------------------------------------------------------
--12--12--12---12---7---7----7----7-----------------------------------------------------------------------------------------
----------------------------------------------------------------------------------------------------------------------------------
----------------------------------------------------------------------------------------------------------------------------------
----------------------------------------------------------------------------------------------------------------------------------

Se repite 2 veces más  y queda la 1era guitarra una vez. 


1era Guitarra
Con dist.
                                                             Vibrato
------------------------------------------------5--------------------------------------------------------------------------------
----------------------------------------------------------------------------------------------------------------------------------
----------------------------------------------------------------------------------------------------------------------------------
-------7---7-------7----7------7----7------------------------------------------------------------------------------------------
-------7---7-------7----7------7----7------------------------------------------------------------------------------------------
-------5---5-------5----5------5----5------------------------------------------------------------------------------------------


Se repite dos veces el coro entero



                                                                                             CORO 2

En esta parte van al mismo tiempo la 2da guitarra del CORO, que va con sonido limpio y metálico y la 1era guitarra es esta:


1era guitarra
Con Dist.

----------------------------------------------------------------------------------------------------------------------------------
----------------------------------------------------------------------------------------------------------------------------------
----------------------------------------------------------------------------------------------------------------------------------
----------------------------------------------------------------------------------------------------------------------------------
----------------------------4--5--(4---7-----4)--------------------------------------------------------------------------------
---5--5--7--5---7----5---------------------------------------------------------------------------------------------------------


El CORO 2 se repite 4 veces.

Después de esto empieza desde la INTRO , hace todo denuevo y termina con un solo de la 1era guitarra.

ORDEN: INTRO
                CORO
                CORO 2
                INTRO
                CORO
                CORO 2 
                SOLO
Compositor não encontrado.
638 vistas
    • ½ Tono
    • A
    • Bb
    • B
    • C
    • Db
    • D
    • Eb
    • E
    • F
    • F#
    • G
    • Ab
  • Agregar a la lista

    0 comentarios

    Ver todos los comentarios

    ¿Lograste tocar?

    0 Tocaron 0 Aún no

    ¡Graba un video tocando Alta Magia y envíanoslo!

    00:00 / 00:00
    Outros vídeos desta música
    Repetir Calidad Automático
    Outros vídeos desta música
    00:00 / 00:00
    Automático
    OK