Cifra Club

El Profeta

La Vela Puerca

Cifrado: Principal (guitarra y guitarra eléctrica)
tono: C
Intro:

E|-0-0-0-0-----0-0------1-1-0----------/-----0-0-----------0---/|
B|---------3-1-----3-1---------3-1-0-1-/-0-------3-1-0-1-3-----/|
G|-------------------------------------/---2-------------------/|
D|-------------------------------------/-----------------------/|
A|-------------------------------------/-----------------------/|
E|-------------------------------------/-----------------------/|

E|-----0-0---------/-----0-0-----------0-/-1-1-0-0-------------/|
B|-0-------3-1-0-1-/-0-------3-1-0-1-3---/---------3-1-0-1-----/|
G|---2-------------/---2-----------------/---------------------/|
D|-----------------/---------------------/---------------------/|
00:00 / 00:00
Otros videos de esta canción
Repetir
Otros videos de esta canción
Composición de Sebastián Teysera
91 vistas
    • ½ Tono
    • A
    • Bb
    • B
    • C
    • Db
    • D
    • Eb
    • E
    • F
    • F#
    • G
    • Ab
  • Agregar a la lista

    0 comentarios

    Ver todos los comentarios

    ¿Lograste tocar?

    0 Tocaron 0 Aún no

    ¡Graba un video tocando El Profeta y envíanoslo!

    00:00 / 00:00
    OK