Cifra Club

Mi Diablo

La Vela Puerca

Cifrado: Versão 3 (guitarra y guitarra eléctrica)
tono: G
INTRO:

E|--2h3-2-------------------------------------|
B|--------3-3/5-3----------------5-7-8*-------|
G|----------------2-2/4-----------------------|
D|--------------------------------------------|
A|--------------------------------------------|
E|--------------------------------------------|

RIFFS:

(1)
E|------------------------|
B|------------------------|
G|------------------------|
D|------------------------|
A|----2h3-3-2-2h3-2-------|
E|------------------0-----|

(2)
E|---3h5-3----------------|
B|------------------------|
G|------------------------|
D|------------------------|
A|------------------------|
E|------------------------|

(3)

E|-------5----------------|
B|--5h7-----8*------------|
G|------------------------|
D|------------------------|
A|------------------------|
E|------------------------|

(4)
E|----------------------------|
B|----------------------------|
G|----------------------------|
D|----------------------------|
A|----2h3-3-2-2h3-2--7-9-10*--|
E|----------------------------|

G  O:

E|-------------------------------------------------|
B|7-8-10-8-7---------8-10-12-10-8-10---------------|
G|-------------9-7---------------------------------|
D|-------------------------------------------------|
A|-------------------------------------------------|
E|-------------------------------------------------|

E|-------------------------------------------------|
B|7-8-10-8-7---------8-10-12-10-8----5--5/7-8*-----|
G|-------------9-7---------------------------------|
D|-------------------------------------------------|
A|-------------------------------------------------|
E|-------------------------------------------------|
Composición de La vela Puerca
    • ½ Tono
    • A
    • Bb
    • B
    • C
    • Db
    • D
    • Eb
    • E
    • F
    • F#
    • G
    • Ab
  • Agregar a la lista

    0 comentarios

    Ver todos los comentarios

    ¿Lograste tocar?

    0 Tocaron 0 Aún no

    ¡Graba un video tocando Mi Diablo y envíanoslo!

    00:00 / 00:00
    Outros vídeos desta música
    Repetir Calidad Automático
    Outros vídeos desta música
    00:00 / 00:00
    Automático
    OK