Cifra Club

Por Dentro

La Vela Puerca

Cifrado: Principal (guitarra y guitarra eléctrica)
tono: Bb
E|---------------------------------------------|-------------------------------------------|
B|-3---------3-4-4-3----3-3--------4-3---------|-3---------3-4-4-3----3-3------------------|
G|---3-0---5---------5-------3-0-------5-3-----|---3-0---5---------5-------3-0---5-3-5-3-2-|
D|---------------------------------------------|-------------------------------------------|
A|---------------------------------------------|-------------------------------------------|
E|---------------------------------------------|-------------------------------------------|

Esto es un riff en medio de la cancion

E|-----------------------------|
B|-----------------------------|
G|-----------------------------|
D|-----------------------------|
A|---------5-3--3-6-5-3--------|
E|-3--3-6----------------3-----|
Composición de Sebastian Teysera
1 vistas
    • ½ Tono
    • A
    • Bb
    • B
    • C
    • Db
    • D
    • Eb
    • E
    • F
    • F#
    • G
    • Ab
  • Agregar a la lista

    0 comentarios

    Ver todos los comentarios

    ¿Lograste tocar?

    0 Tocaron 0 Aún no

    ¡Graba un video tocando Por Dentro y envíanoslo!

    00:00 / 00:00
    Outros vídeos desta música
    Repetir Calidad Automático
    Outros vídeos desta música
    00:00 / 00:00
    Automático
    OK