Cifra Club

Sanar

La Vela Puerca

Cifrado: Principal (guitarra y guitarra eléctrica)
tono: F
arreglo un acorde del estribillo que estaba mal nomás ;-)



Primero que nada les recomiendo hacer F así:

E|-8--|
B|-10-|
G|-10-|
D|-10-|
A|-8--|
E|----|



[INTRO] A#-C-F x2

E|---------------6-8----------------6-8-|
B|-10~--10-8-10~----6--10-8-10-8-10~----|
G|--------------------------------------|
D|--------------------------------------|
A|--------------------------------------|
E|--------------------------------------|

[VERSO]

Bb       C        F
Salí despacio cuidando de
Bb       C          F
no estropear la jornada
Bb        C           Dm
que mi cabeza ahora pide volver
Bb            C
y ya no lastimar

Bb       C           F
Hoy me convenzo de que estoy bien
Bb  C        F
y mañana resbalo
Bb       C               Dm
no se por que ahora respiro al reves
Bb                C
Y no me puedo hablar...

[ESTRIBILLO]

Bb                      C
Lo que entiendo es que mi canción
       F    F/E   Dm
ya no me quiere sanar
Bb                      C
será que a algunos les cae bien
        F     F/E   Dm
y a mi no me deja entrar?...

Bb                 C
Hoy no consigo dormir
Gm                   Am
y así despierto, me duele todo
Bb                 C
ahora me tengo que ir...

[G  O DE SAXO 1] (en base al Verso)

E|---------------6-8----------------6-8--|
B|-10~--10-8-10~----6--10-8-10-8-10~---6-|
G|---------------------------------------|
D|---------------------------------------|
A|---------------------------------------|
E|---------------------------------------|

E|----8--10~-10-8~--10-8------------------|
B|-10--------------------10-6-8--10-11-10-|
G|----------------------------------------|
D|----------------------------------------|
A|----------------------------------------|
E|----------------------------------------|

[VERSO]

Me faltan brazos para torcer
hoy no llego a abrazarme
mi lado oscuro vuelve a arremeter
y no me deja en paz

De a poco voy saludandome
y la espina se ablanda
igual me tranco y quedo sin saber
para dónde volar...

[ESTRIBILLO]

Lo que entiendo es que mi canción
ya no me quiere sanar
será que a algunos les cae bien
y a mi no me deja entrar?...

Alguien me invito a vivir
pero igualmente me sentí solo
adonde iré a resurgir?...

[G  O DE SAXO 2] A#-Am-F x4

E|-6-8-10-----------------------------6-8-10----------------8~~-|
B|-------6-8-10--11-10-8-6~-(8)-(10)---------6-8-10--11-10-8----|
G|--------------------------------------------------------------|
D|--------------------------------------------------------------|
A|--------------------------------------------------------------|
E|--------------------------------------------------------------|

E|-10-12-13--8-6-5--6-8~~-(5)-----|
B|----------------------------(8)-|
G|--------------------------------|
D|--------------------------------|
A|--------------------------------|
E|--------------------------------|

[ESTRIBILLO]

Y lo que entiendo es que mi canción
ya no me quiere sanar
será que a algunos les cae bien
y a mi no me deja entrar?...

Hoy le pedí por favor
que esté conmigo y no se me esconda
porque perdí mi motor...

[G  O DE SAXO 1] (en base al Verso) x2

FINAL: A#-Am-F x3



Bueno no es un tema dificil así q no les costará
en el ultimo estribillo solo hagan los bajos de cada nota
Aguante el Rock n' roll y nada mas,
es algo que los chetos no pueden entender!
Composición de Teysera
6 vistas
    • ½ Tono
    • A
    • Bb
    • B
    • C
    • Db
    • D
    • Eb
    • E
    • F
    • F#
    • G
    • Ab
  • Agregar a la lista

    0 comentarios

    Ver todos los comentarios
    00:00 / 00:00
    Outros vídeos desta música
    Repetir Calidad Automático
    Outros vídeos desta música
    00:00 / 00:00
    Automático
    OK