Cifra Club

Sin Palabras

La Vela Puerca

Cifrado: Principal (guitarra y guitarra eléctrica)
tono: C
Intro:

(Fmaj7)(C/E)(C/D)(C)  x2
E|------------------------|
B|--1----1----1----1------|
G|------------------------|
D|--3----2----0-----------|
A|-----------------3------|
E|------------------------|


(Entra Harmónica)

arpegiado:

(Fmaj7)        (C)    (C/D)    (C)  x4
E|-------------------------------------------|
B|-----1---------1-------1-------1-----------|
G|---2--0------0--0----0--0----0--0----------|
D|-3---------2-------0--------2--------------|
A|--------(3)*--------------(3)--------------|
E|-------------------------------------------|
*( el 3 en paréntesis opcional)

toda la canción sobre ese arpegio...

Fmaj7     C     C/D   C
   Voy hablando sin palabras,
   Voy mirando  sin   ojos.
   Agarrando   sin las manos,
   Viviendo   sin corazón.

Fmaj7     C     C/D   C
   Al camino que elegí
   Yo no se que me llevo
   Si las vueltas de la vida
   O si las vueltas las di yo

Fmaj7     C     C/D   C
   Ojalá que las palabras
   Que hablan de la soledad
   Busquen un acompañante
   Y no hablan solo por hablar... laraila lai rai

 Fmaj7     C     C/D   C
   Corre humo por mis venas
   Con un fuerte olor dulzón
   No tengo noticias tuyas
   Y ya perdí la razón

Fmaj7     C     C/D   C
   Tengo miedo en el olvido
   Y me mata el ansiedad
   En ese tiempo de distancia
   Vive lo que no se da

Fmaj7     C     C/D   C
   Ojalá que cuando vuelvas
   B  decidas volver
   Vuelvas con la frente en alto
   Para que lo puedas ver... laraila lai rai
Compositor não encontrado.
5 vistas
    • ½ Tono
    • A
    • Bb
    • B
    • C
    • Db
    • D
    • Eb
    • E
    • F
    • F#
    • G
    • Ab
  • Agregar a la lista

    0 comentarios

    Ver todos los comentarios

    ¿Lograste tocar?

    0 Tocaron 0 Aún no

    ¡Graba un video tocando Sin Palabras y envíanoslo!

    00:00 / 00:00
    Outros vídeos desta música
    Repetir Calidad Automático
    Outros vídeos desta música
    00:00 / 00:00
    Automático
    OK