Cifra Club

Solo Un Paredón

La Vela Puerca

Cifrado: Versão 2 (guitarra y guitarra eléctrica)
tono: B
intro:

E|----------------------------------------------------------------|
B|-------4------------4------------4-------------7-----7----7-----|
G|-----4---4--------4---4--------4---4--------4----4-----4----4---|
D|---4-------4----4-------4----4-------4----4--------4-----4----4-|
A|-2------------6------------7------------5-----------------------|
E|----------------------------------------------------------------|

verso A:

E|----------------------------------------------------------------|
B|---------4-------------4--------------4---------------7---------|
G|-------4---4---------4---4----------4---4----------4----4-------|
D|-----4-------4-----4-------4------4-------4------4--------4-----|
A|---2-------------6-------------7--------------5-----------------|
E|----------------------------------------------------------------|

verso B:

E|-----------------------------------------------------------------|
B|-------4------------4------------4-------------7-----7----7------|
G|-----4---4--------4---4--------4---4--------4----4-----4----4----|
D|---4-------4----4-------4----4-------4----4--------4-----4----4--|
A|-2------------6------------7------------5------------------------|
E|-----------------------------------------------------------------|


estribillo:

E|--------------------0----2----0------------------------| *1ra vez
B|------5-----------0--------2----2----4---*4------------| #2da vez
G|----6---6-------1-----1-----3----3-----4---4-----------|
D|--6------6----2----------4----4---------4---4-| #1-2-1-2-
A|-4-----------------------------------2-----------------|
E|-------------0-----------------------------------------|

E|----------------------0------2------0---------------------|
B|---------5--------------0------2------2----4-----4--------|
G|-------6---6--------1-----1------3------3----4-----4------|
D|-----6------6-----2----------4------4----------4-----4----|
A|---4---------------------------------------2--------------|
E|----------------0-----------------------------------------|

E|----------------------0------------0-----0-----0----------|
B|---------5--------------0--------2---2-----2-----2--------|
G|-------6---6--------1-----1----3-------3-----3-----3------|
D|-----6------6-----2----------4-----4-----4-----4----------|
A|---4------------------------------------------------------|
E|----------------0-----------------------------------------|


(verso A)
En algún lugar
Escondí la vos
Para razonar
Si es que recuerdo el motivo
(verso A)
Que me impide comenzar
A finalizar

(Verso A)
A  última canción
No la quise ver
Menos lastimar
Hice que estaba dormido
(Verso B)
Y se fue sin explicar
Que me iba a contar

(Estribillo)
Pero sólo me permito un paredón
Y hoy no le toca a él
Tirar la ficha entre el montón
Mañana voy a enloquecer
De alegría y sudor
A golpearme el corazón

(verso)
En algún lugar
Aprendí a mostrar
Lo que no se ve
Eso que vive escondido
Y que nunca quise ver
Menos responder

(verso)
Hoy me levanté
A regar E  flor
Y me sonrió
Todo parece distinto
Si me roza una emoción
Mera confusión

(Estribillo)
Porque sólo me permito un paredón
Y hoy no le toca a él
Tirar la ficha entre el montón
Mañana voy a enloquecer
De alegría y sudor
A golpearme el corazón

C#m  E  B  F#  x4 E 

Estribillo x 2

a golpearme el corazon...
E|-------------------0-----------0-----0-----0-----------0-----0-----0-----|
B|-------5-------------0-------2---2-----2-----2-------2---2-----2-----2---|
G|-----6---6-------1-----1---3-------3-----3-----3---3-------3-----3-----3-|
D|---6------6----2---------4-----4-----4-----4-----4-----4-----4-----4-----|
A|-4-----------------------------------------------------------------------|
E|--------------0----------------------------------------------------------|

final:


E|------------------------------------------------------------------------|
B|---------4-------------4--------------4---------------7-----------------|
G|-------4---4---------4---4----------4---4----------4----4---------------|
D|-----4-------4-----4-------4------4-------4------4--------4-------------|
A|---2-------------6-------------7--------------5-------------------------|
E|------------------------------------------------------------------------|

E|----------------------------------------------------------------|
B|-------4------------4------------4-------------7----7---7-----7-|
G|-----4---4--------4---4--------4---4--------4----4----4---4---4-|
D|---4-------4----4-------4----4-------4----4--------4----4---4---|
A|-2------------6------------7------------5-----------------------|
E|----------------------------------------------------------------|


Bueno eso fue todo, es mi primera transcripción,
espero que les guste,
suena bastante bien.
Saqué mas canciones de este disco,
si quieren envienme un mensaje por facebook
(Agustin Ignacio Gonzalez)
Composición de Teysera
1 vistas
    • ½ Tono
    • A
    • Bb
    • B
    • C
    • Db
    • D
    • Eb
    • E
    • F
    • F#
    • G
    • Ab
  • Agregar a la lista

    0 comentarios

    Ver todos los comentarios

    ¿Lograste tocar?

    0 Tocaron 0 Aún no

    ¡Graba un video tocando Solo Un Paredón y envíanoslo!

    00:00 / 00:00
    Outros vídeos desta música
    Repetir Calidad Automático
    Outros vídeos desta música
    00:00 / 00:00
    Automático
    OK