Cifra Club

Un frasco

La Vela Puerca

Cifrado: Principal (guitarra y guitarra eléctrica)
tono: Cm
Intro
         X2
E|---------|--------------------------------------|
B|---8-----|--------------------------------------|
G|-----7-8-|-----------------8-7-8-7-8-7-8-7-8-7-|
D|-5-------|--5-4-5-5s8-7-8-----------------------|

E|--------------------------------------|
B|-----------------------------8-7-8----|
G|-----------------8-7-8-7-8-7----------|
D|--5-4-5-5s8-7-8-----------------------|

G|-----------------8-7-8-7-8-7-8-7-8-7-|
D|--5-4-5-5s8-7-8-----------------------|

G|----------------7-8-|
D|--5-4-5-5s8-7-8-----|

(12:24) I      II          (12:25)
B|---8-----|-----------8-|---8---------|
G|-----7-8-|-----7-8-7---|-----7-| Eb5pm-|
D|-5-------|-5-----------|-5-----------|


G     Eb5                      G
Hola, dejen el saco en mi alcoba
      Eb5
y después me siguen,
G     Eb5                 G
tengo ganas por este momento;
      Eb5
hoy será distinto:
(12:24) I y II y (12:25)
G    Eb5                   G
creo que la cena está servida,
         Eb5
y disfruten de todo.
G      Eb5              G
Luego hablemos amablemente,
       Eb5
seguro hay motivos.


Bb5        F           Eb5
    Me pregunto, y titubeo,
                      Bb5
si sospechan lo que espero
       F           Eb5
que suceda hoy aquí;
Bb5        F           Eb5
   Tengo planes para todos,
                       Bb5
tengo fuerza, tengo el modo,
      F             Eb5
incluyéndome hasta mí:
Ab5  Eb5 Db5 Ab5   Bb5  Db5  Ab5
len  to, sua ve, letal.

(12:24) I y II
G      Eb5                G
Miren, una vez más todos juntos
           Eb5
¿cómo es que han estado?
(12:24) I y II
G     Eb5                   G
juro, los extrañé muchas veces,
      Eb5
voy a ser sincero.
(12:24) I y II
G          Eb5                    G
Mientras, háblenme sobre sus cuentas,

Eb5
seguro han crecido,
(12:24) I y (12:25)
G         Eb5                         G
vamos, que hay que brindar por la nuestra,
          Eb5
y un vino merecido.

Bb5        F           Eb5
    Me pregunto, y titubeo,
                    Bb5
si sospechan lo que espero
       F           Eb5
que suceda hoy aquí;
Bb5        F           Eb5
   Tengo planes para todos,
                      Bb5
tengo fuerza, tengo el modo,
      F             Eb5
incluyéndome hasta mí:
Ab5  Eb5 Db5 Ab5   Bb5     Db5  Ab5
len  to, sua ve, letal. X2

e|--------------------------------------
B|--------------------------------------
G|-----------------8-7-8-7-8-7-8-7-8-7-|
D|--5-4-5-5s8-7-8-----------------------|

E|--------------------------------------|
B|-----------------------------8-7-8----|
G|-----------------8-7-8-7-8-7----------|
D|--5-4-5-5s8-7-8-----------------------|

G|-----------------8-7-8-7-8-7-8-7-8-7-|
D|--5-4-5-5s8-7-8-----------------------|

G|----------------7-8-|
D|--5-4-5-5s8-7-8-----|


Rían, todo seguro y en calma,
pero no se olviden:
traten de recordar las mentiras
que sostienen sus vidas.
(12:24) I y II
Gusten, el vino está un poco raro,
pero no se asusten;
(12:24) I y (12:25)
pasen juntos para el otro lado,
que yo también soy malo.

Bb5        F           Eb5
    Me pregunto, y titubeo,
                     Bb5
si sospechan lo que espero
       F           Eb5
que suceda hoy aquí;
Bb5        F           Eb5
   Tengo planes para todos,
                       Bb5
tengo fuerza, tengo el modo,
      F             Eb5
incluyéndome hasta mí:
Bb5              F          Eb5
    Ya no hay duda, y entendieron,
                    Bb5
copas rotas por el suelo:
       F           Eb5
hoy la Muerte va a venir,
Bb5         F             Eb5
   y el diario saldrá diciendo
                    Bb5
del horror que ha sucedido
          F          Eb5
y que el veneno era así:
Ab5  Eb5 Db5 Ab5   Bb5 (x3) Db5  Ab5
len  to, sua ve, letal.
Compositor não encontrado.
19 vistas
    • ½ Tono
    • Am
    • Bbm
    • Bm
    • Cm
    • C#m
    • Dm
    • Ebm
    • Em
    • Fm
    • F#m
    • Gm
    • G#m
  • Agregar a la lista

    0 comentarios

    Ver todos los comentarios

    ¿Lograste tocar?

    0 Tocaron 0 Aún no

    ¡Graba un video tocando Un frasco y envíanoslo!

    00:00 / 00:00
    Outros vídeos desta música
    Repetir Calidad Automático
    Outros vídeos desta música
    00:00 / 00:00
    Automático
    OK