Cifra Club

Vuelan Palos

La Vela Puerca

Cifrado: Principal (guitarra y guitarra eléctrica)
tono: C

E|--------------------------------|
B|--12----12------12--------------|
G|--13s14-13------13---12s16s14v--|
D|----------14--14---14-----------|
A|--------------------------------|
E|--------------------------------|

E|--------------------------------|
B|--------------------------------|
G|-12-14-14s16--------------------|
D|--------------------------------|
A|--------------------------------|
E|--------------------------------|

E|--------------------------------|
B|--------------------------------|
G|------12-12---------------------|
D|-12h14-----14v------------------|
A|--------------------------------|
E|--------------------------------|

E|-15-14-12-----------------------|
B|-12------12-13------------------|
G|-12-----------14----------------|
D|--------------------------------|
A|--------------------------------|
E|--------------------------------|

E|--------------------------------|
B|--------------------------------|
G|-----------12--7v--7v----7v-----|
D|------12-14------10--7h10-------|
A|-12-15--------------------------|
E|--------------------------------|

E|--------------------------------|
B|--------------------------------|
G|-------7-7v-7h9v----------------|
D|-7-9-10-------------------------|
A|--------------------------------|
E|--------------------------------|

E|--------------------------------|
B|--------------------------------|
G|----5-5v------------------------|
D|-5h7----7-----------------------|
A|--------------------------------|
E|--------------------------------|

E|--------------------------------|
B|--------------------------------|
G|-----7/-----7/----7/------------|
D|-5s7/---5s7/--5s7/---7-7-5-5-3--|
A|-------------------------------5|
E|--------------------------------|










el tema se lo dedico a vale q es fana de la vela
(espero q lo aprendas cheee! jejej)



..........bueno espero q le sirva a alguien... no transcribi
los acordes porq me dio pachorra y ademas porq ya
estaban bien sacados en los otros tabs del tema...
Composición de Sebastian Teysera
17 vistas
    • ½ Tono
    • A
    • Bb
    • B
    • C
    • Db
    • D
    • Eb
    • E
    • F
    • F#
    • G
    • Ab
  • Agregar a la lista

    0 comentarios

    Ver todos los comentarios

    ¿Lograste tocar?

    0 Tocaron 0 Aún no

    ¡Graba un video tocando Vuelan Palos y envíanoslo!

    00:00 / 00:00
    Otros videos de esta canción
    Repetir Calidad Automático
    Otros videos de esta canción
    00:00 / 00:00
    Automático
    OK